  0
SECTION
  2
HEADER
  9
$ACADVER
  1
AC1015
  9
$ACADMAINTVER
 70
     6
  9
$DWGCODEPAGE
  3
ANSI_1254
  9
$INSBASE
 10
0.0
 20
0.0
 30
0.0
  9
$EXTMIN
 10
0.0
 20
0.0
 30
0.0
  9
$EXTMAX
 10
279.4
 20
215.9
 30
0.0
  9
$LIMMIN
 10
0.0
 20
0.0
  9
$LIMMAX
 10
279.4
 20
215.9
  9
$ORTHOMODE
 70
     0
  9
$REGENMODE
 70
     1
  9
$FILLMODE
 70
     1
  9
$QTEXTMODE
 70
     0
  9
$MIRRTEXT
 70
     1
  9
$LTSCALE
 40
1.0
  9
$ATTMODE
 70
     1
  9
$TEXTSIZE
 40
3.5
  9
$TRACEWID
 40
1.0
  9
$TEXTSTYLE
  7
Standard
  9
$CLAYER
  8
0
  9
$CELTYPE
  6
ByLayer
  9
$CECOLOR
 62
   256
  9
$CELTSCALE
 40
1.0
  9
$DISPSILH
 70
     0
  9
$DIMSCALE
 40
1.0
  9
$DIMASZ
 40
3.5
  9
$DIMEXO
 40
1.0
  9
$DIMDLI
 40
3.75
  9
$DIMRND
 40
0.0
  9
$DIMDLE
 40
0.0
  9
$DIMEXE
 40
1.0
  9
$DIMTP
 40
0.0
  9
$DIMTM
 40
0.0
  9
$DIMTXT
 40
3.5
  9
$DIMCEN
 40
2.5
  9
$DIMTSZ
 40
0.0
  9
$DIMTOL
 70
     0
  9
$DIMLIM
 70
     0
  9
$DIMTIH
 70
     1
  9
$DIMTOH
 70
     1
  9
$DIMSE1
 70
     0
  9
$DIMSE2
 70
     0
  9
$DIMTAD
 70
     1
  9
$DIMZIN
 70
     0
  9
$DIMBLK
  1

  9
$DIMASO
 70
     1
  9
$DIMSHO
 70
     1
  9
$DIMPOST
  1

  9
$DIMAPOST
  1

  9
$DIMALT
 70
     0
  9
$DIMALTD
 70
     3
  9
$DIMALTF
 40
0.0393700787
  9
$DIMLFAC
 40
1.0
  9
$DIMTOFL
 70
     1
  9
$DIMTVP
 40
0.0
  9
$DIMTIX
 70
     0
  9
$DIMSOXD
 70
     0
  9
$DIMSAH
 70
     0
  9
$DIMBLK1
  1

  9
$DIMBLK2
  1

  9
$DIMSTYLE
  2
ISO-25
  9
$DIMCLRD
 70
     0
  9
$DIMCLRE
 70
     0
  9
$DIMCLRT
 70
     0
  9
$DIMTFAC
 40
1.0
  9
$DIMGAP
 40
1.524
  9
$DIMJUST
 70
     0
  9
$DIMSD1
 70
     0
  9
$DIMSD2
 70
     0
  9
$DIMTOLJ
 70
     0
  9
$DIMTZIN
 70
     0
  9
$DIMALTZ
 70
     0
  9
$DIMALTTZ
 70
     0
  9
$DIMUPT
 70
     0
  9
$DIMDEC
 70
     2
  9
$DIMTDEC
 70
     2
  9
$DIMALTU
 70
     2
  9
$DIMALTTD
 70
     3
  9
$DIMTXSTY
  7
Standard
  9
$DIMAUNIT
 70
     0
  9
$DIMADEC
 70
     2
  9
$DIMALTRND
 40
0.0
  9
$DIMAZIN
 70
     0
  9
$DIMDSEP
 70
    44
  9
$DIMATFIT
 70
     3
  9
$DIMFRAC
 70
     0
  9
$DIMLDRBLK
  1

  9
$DIMLUNIT
 70
     2
  9
$DIMLWD
 70
    -2
  9
$DIMLWE
 70
    -2
  9
$DIMTMOVE
 70
     0
  9
$LUNITS
 70
     2
  9
$LUPREC
 70
     2
  9
$SKETCHINC
 40
1.0
  9
$FILLETRAD
 40
10.0
  9
$AUNITS
 70
     0
  9
$AUPREC
 70
     2
  9
$MENU
  1
.
  9
$ELEVATION
 40
0.0
  9
$PELEVATION
 40
0.0
  9
$THICKNESS
 40
0.0
  9
$LIMCHECK
 70
     0
  9
$CHAMFERA
 40
0.0
  9
$CHAMFERB
 40
0.0
  9
$CHAMFERC
 40
0.0
  9
$CHAMFERD
 40
0.0
  9
$SKPOLY
 70
     0
  9
$TDCREATE
 40
2459741.603194016
  9
$TDUCREATE
 40
2459741.478194016
  9
$TDUPDATE
 40
2459741.603194201
  9
$TDUUPDATE
 40
2459741.478194201
  9
$TDINDWG
 40
0.0000000116
  9
$TDUSRTIMER
 40
0.0000000116
  9
$USRTIMER
 70
     1
  9
$ANGBASE
 50
0.0
  9
$ANGDIR
 70
     0
  9
$PDMODE
 70
     0
  9
$PDSIZE
 40
-1.0
  9
$PLINEWID
 40
0.0
  9
$SPLFRAME
 70
     0
  9
$SPLINETYPE
 70
     6
  9
$SPLINESEGS
 70
     8
  9
$HANDSEED
  5
131
  9
$SURFTAB1
 70
     6
  9
$SURFTAB2
 70
     6
  9
$SURFTYPE
 70
     6
  9
$SURFU
 70
     6
  9
$SURFV
 70
     6
  9
$UCSBASE
  2

  9
$UCSNAME
  2

  9
$UCSORG
 10
0.0
 20
0.0
 30
0.0
  9
$UCSXDIR
 10
1.0
 20
0.0
 30
0.0
  9
$UCSYDIR
 10
0.0
 20
1.0
 30
0.0
  9
$UCSORTHOREF
  2

  9
$UCSORTHOVIEW
 70
     0
  9
$UCSORGTOP
 10
0.0
 20
0.0
 30
0.0
  9
$UCSORGBOTTOM
 10
0.0
 20
0.0
 30
0.0
  9
$UCSORGLEFT
 10
0.0
 20
0.0
 30
0.0
  9
$UCSORGRIGHT
 10
0.0
 20
0.0
 30
0.0
  9
$UCSORGFRONT
 10
0.0
 20
0.0
 30
0.0
  9
$UCSORGBACK
 10
0.0
 20
0.0
 30
0.0
  9
$PUCSBASE
  2

  9
$PUCSNAME
  2

  9
$PUCSORG
 10
0.0
 20
0.0
 30
0.0
  9
$PUCSXDIR
 10
1.0
 20
0.0
 30
0.0
  9
$PUCSYDIR
 10
0.0
 20
1.0
 30
0.0
  9
$PUCSORTHOREF
  2

  9
$PUCSORTHOVIEW
 70
     0
  9
$PUCSORGTOP
 10
0.0
 20
0.0
 30
0.0
  9
$PUCSORGBOTTOM
 10
0.0
 20
0.0
 30
0.0
  9
$PUCSORGLEFT
 10
0.0
 20
0.0
 30
0.0
  9
$PUCSORGRIGHT
 10
0.0
 20
0.0
 30
0.0
  9
$PUCSORGFRONT
 10
0.0
 20
0.0
 30
0.0
  9
$PUCSORGBACK
 10
0.0
 20
0.0
 30
0.0
  9
$USERI1
 70
     0
  9
$USERI2
 70
     0
  9
$USERI3
 70
     0
  9
$USERI4
 70
     0
  9
$USERI5
 70
     0
  9
$USERR1
 40
0.0
  9
$USERR2
 40
0.0
  9
$USERR3
 40
0.0
  9
$USERR4
 40
0.0
  9
$USERR5
 40
0.0
  9
$WORLDVIEW
 70
     1
  9
$SHADEDGE
 70
     3
  9
$SHADEDIF
 70
    70
  9
$TILEMODE
 70
     1
  9
$MAXACTVP
 70
    64
  9
$PINSBASE
 10
0.0
 20
0.0
 30
0.0
  9
$PLIMCHECK
 70
     0
  9
$PEXTMIN
 10
1.0000000000E+20
 20
1.0000000000E+20
 30
1.0000000000E+20
  9
$PEXTMAX
 10
-1.0000000000E+20
 20
-1.0000000000E+20
 30
-1.0000000000E+20
  9
$PLIMMIN
 10
0.0
 20
0.0
  9
$PLIMMAX
 10
420.0
 20
297.0
  9
$UNITMODE
 70
     0
  9
$VISRETAIN
 70
     1
  9
$PLINEGEN
 70
     0
  9
$PSLTSCALE
 70
     1
  9
$TREEDEPTH
 70
  3020
  9
$CMLSTYLE
  2
Standard
  9
$CMLJUST
 70
     0
  9
$CMLSCALE
 40
20.0
  9
$PROXYGRAPHICS
 70
     1
  9
$MEASUREMENT
 70
     1
  9
$CELWEIGHT
370
    -1
  9
$ENDCAPS
280
     0
  9
$JOINSTYLE
280
     0
  9
$LWDISPLAY
290
     1
  9
$INSUNITS
 70
     4
  9
$HYPERLINKBASE
  1

  9
$STYLESHEET
  1

  9
$XEDIT
290
     1
  9
$CEPSNTYPE
380
     0
  9
$PSTYLEMODE
290
     1
  9
$FINGERPRINTGUID
  2
{cf8bdb05-e3dc-4cb2-929e-66ffbac4b987}
  9
$VERSIONGUID
  2
{FAEB1C32-E019-11D5-929B-00C0DF256EC4}
  9
$EXTNAMES
290
     1
  9
$PSVPSCALE
 40
0.0
  9
$OLESTARTUP
290
     0
  0
ENDSEC
  0
SECTION
  2
CLASSES
  0
CLASS
  1
ACDBDICTIONARYWDFLT
  2
AcDbDictionaryWithDefault
  3
ObjectDBX Classes
 90
        0
280
     0
281
     0
  0
CLASS
  1
VISUALSTYLE
  2
AcDbVisualStyle
  3
ObjectDBX Classes
 90
     4095
280
     0
281
     0
  0
CLASS
  1
MATERIAL
  2
AcDbMaterial
  3
ObjectDBX Classes
 90
     1153
280
     0
281
     0
  0
CLASS
  1
SCALE
  2
AcDbScale
  3
ObjectDBX Classes
 90
     1153
280
     0
281
     0
  0
CLASS
  1
TABLESTYLE
  2
AcDbTableStyle
  3
ObjectDBX Classes
 90
     4095
280
     0
281
     0
  0
CLASS
  1
MLEADERSTYLE
  2
AcDbMLeaderStyle
  3
ACDB_MLEADERSTYLE_CLASS
 90
     4095
280
     0
281
     0
  0
CLASS
  1
SUN
  2
AcDbSun
  3
SCENEOE
 90
     1153
280
     0
281
     0
  0
CLASS
  1
ACDBPLACEHOLDER
  2
AcDbPlaceHolder
  3
ObjectDBX Classes
 90
        0
280
     0
281
     0
  0
CLASS
  1
LAYOUT
  2
AcDbLayout
  3
ObjectDBX Classes
 90
        0
280
     0
281
     0
  0
ENDSEC
  0
SECTION
  2
TABLES
  0
TABLE
  2
VPORT
  5
8
330
0
100
AcDbSymbolTable
 70
     1
  0
VPORT
  5
29
330
8
100
AcDbSymbolTableRecord
100
AcDbViewportTableRecord
  2
*Active
 70
     0
 10
0.0
 20
0.0
 11
1.0
 21
1.0
 12
139.7
 22
107.95
 13
0.0
 23
0.0
 14
10.0
 24
10.0
 15
10.0
 25
10.0
 16
0.0
 26
0.0
 36
1.0
 17
0.0
 27
0.0
 37
0.0
 40
215.9
 41
1.2941176471
 42
50.0
 43
0.0
 44
0.0
 50
0.0
 51
0.0
 71
     0
 72
  2000
 73
     1
 74
     3
 75
     0
 76
     0
 77
     0
 78
     0
281
     0
 65
     1
110
0.0
120
0.0
130
0.0
111
1.0
121
0.0
131
0.0
112
0.0
122
1.0
132
0.0
 79
     0
146
0.0
  0
ENDTAB
  0
TABLE
  2
LTYPE
  5
5
330
0
100
AcDbSymbolTable
 70
     6
  0
LTYPE
  5
14
330
5
100
AcDbSymbolTableRecord
100
AcDbLinetypeTableRecord
  2
ByBlock
 70
     0
  3

 72
    65
 73
     0
 40
0.0
  0
LTYPE
  5
15
330
5
100
AcDbSymbolTableRecord
100
AcDbLinetypeTableRecord
  2
ByLayer
 70
     0
  3

 72
    65
 73
     0
 40
0.0
  0
LTYPE
  5
16
330
5
100
AcDbSymbolTableRecord
100
AcDbLinetypeTableRecord
  2
Continuous
 70
     0
  3
Solid line
 72
    65
 73
     0
 40
0.0
  0
LTYPE
  5
6E
330
5
100
AcDbSymbolTableRecord
100
AcDbLinetypeTableRecord
  2
HIDDEN
 70
     0
  3
Hidden __ __ __ __ __ __ __ __ __ __ __ __ __ __
 72
    65
 73
     2
 40
1.905
 49
1.27
 74
     0
 49
-0.635
 74
     0
  0
LTYPE
  5
6F
330
5
100
AcDbSymbolTableRecord
100
AcDbLinetypeTableRecord
  2
PHANTOM
 70
     0
  3
Phantom ______  __  __  ______  __  __  ______
 72
    65
 73
     6
 40
12.7
 49
6.35
 74
     0
 49
-1.27
 74
     0
 49
1.27
 74
     0
 49
-1.27
 74
     0
 49
1.27
 74
     0
 49
-1.27
 74
     0
  0
LTYPE
  5
70
330
5
100
AcDbSymbolTableRecord
100
AcDbLinetypeTableRecord
  2
CENTER
 70
     0
  3
Center ____ _ ____ _ ____ _ ____ _ ____ _ ____
 72
    65
 73
     4
 40
10.16
 49
6.35
 74
     0
 49
-1.27
 74
     0
 49
1.27
 74
     0
 49
-1.27
 74
     0
  0
LTYPE
  5
71
330
5
100
AcDbSymbolTableRecord
100
AcDbLinetypeTableRecord
  2
CENTERX2
 70
     0
  3
Center (2x) ________  __  ________  __  _____
 72
    65
 73
     4
 40
20.32
 49
12.7
 74
     0
 49
-2.54
 74
     0
 49
2.54
 74
     0
 49
-2.54
 74
     0
  0
LTYPE
  5
72
330
5
100
AcDbSymbolTableRecord
100
AcDbLinetypeTableRecord
  2
DOT2
 70
     0
  3
Dot (.5x) ........................................
 72
    65
 73
     2
 40
0.635
 49
0.0
 74
     0
 49
-0.635
 74
     0
  0
ENDTAB
  0
TABLE
  2
LAYER
  5
2
330
0
100
AcDbSymbolTable
 70
    17
  0
LAYER
  5
10
330
2
100
AcDbSymbolTableRecord
100
AcDbLayerTableRecord
  2
0
 70
     0
 62
     7
  6
Continuous
370
    -3
390
F
  0
LAYER
  5
73
330
2
100
AcDbSymbolTableRecord
100
AcDbLayerTableRecord
  2
FORMAT
 70
     0
 62
     7
  6
Continuous
370
    -3
390
F
  0
LAYER
  5
74
330
2
100
AcDbSymbolTableRecord
100
AcDbLayerTableRecord
  2
YARDIMCI_GEOMETRI
 70
     0
 62
    -6
  6
Continuous
290
     0
370
    -3
390
F
  0
LAYER
  5
75
330
2
100
AcDbSymbolTableRecord
100
AcDbLayerTableRecord
  2
SAYFA_CERCEVESI
 70
     0
 62
     7
  6
Continuous
370
    25
390
F
  0
LAYER
  5
76
330
2
100
AcDbSymbolTableRecord
100
AcDbLayerTableRecord
  2
ANTET
 70
     0
 62
     7
  6
Continuous
370
    -3
390
F
  0
LAYER
  5
77
330
2
100
AcDbSymbolTableRecord
100
AcDbLayerTableRecord
  2
OLCU
 70
     0
 62
   150
  6
Continuous
370
    -3
390
F
  0
LAYER
  5
78
330
2
100
AcDbSymbolTableRecord
100
AcDbLayerTableRecord
  2
METIN
 70
     0
 62
    96
  6
Continuous
370
    -3
390
F
  0
LAYER
  5
79
330
2
100
AcDbSymbolTableRecord
100
AcDbLayerTableRecord
  2
BALON
 70
     0
 62
     5
  6
Continuous
370
    -3
390
F
  0
LAYER
  5
7A
330
2
100
AcDbSymbolTableRecord
100
AcDbLayerTableRecord
  2
VURGU
 70
     0
 62
     7
  6
Continuous
370
    -3
390
F
  0
LAYER
  5
7B
330
2
100
AcDbSymbolTableRecord
100
AcDbLayerTableRecord
  2
SILIK
 70
     0
 62
     7
  6
Continuous
370
    -3
390
F
  0
LAYER
  5
7C
330
2
100
AcDbSymbolTableRecord
100
AcDbLayerTableRecord
  2
MODEL
 70
     0
 62
     7
  6
Continuous
370
    -3
390
F
  0
LAYER
  5
7D
330
2
100
AcDbSymbolTableRecord
100
AcDbLayerTableRecord
  2
DETAYLANDıRMA
 70
     0
 62
   190
  6
Continuous
370
    -3
390
F
  0
LAYER
  5
7E
330
2
100
AcDbSymbolTableRecord
100
AcDbLayerTableRecord
  2
TOLERANS
 70
     0
 62
   230
  6
Continuous
370
    -3
390
F
  0
LAYER
  5
7F
330
2
100
AcDbSymbolTableRecord
100
AcDbLayerTableRecord
  2
MERKEZ_CIZGILERI
 70
     0
 62
    30
  6
Continuous
370
    -3
390
F
  0
LAYER
  5
80
330
2
100
AcDbSymbolTableRecord
100
AcDbLayerTableRecord
  2
KESIT-DETAY_CIZGILERI
 70
     0
 62
     7
  6
Continuous
370
    -3
390
F
  0
LAYER
  5
81
330
2
100
AcDbSymbolTableRecord
100
AcDbLayerTableRecord
  2
\U+041E\U+0421\U+0415\U+0412\U+042B\U+0415
 70
     0
 62
     7
  6
Continuous
370
    -3
390
F
  0
LAYER
  5
82
330
2
100
AcDbSymbolTableRecord
100
AcDbLayerTableRecord
  2
\U+0412\U+041E\U+0414\U+042F\U+041D\U+042B\U+0415_\U+0417\U+041D\U+0410\U+041A\U+0418
 70
     0
 62
    11
  6
Continuous
370
    -3
390
F
  0
ENDTAB
  0
TABLE
  2
STYLE
  5
3
330
0
100
AcDbSymbolTable
 70
     1
  0
STYLE
  5
11
330
3
100
AcDbSymbolTableRecord
100
AcDbTextStyleTableRecord
  2
Standard
 70
     0
 40
0.0
 41
1.0
 50
0.0
 71
     0
 42
3.5
  3
txt
  4

  0
ENDTAB
  0
TABLE
  2
VIEW
  5
6
330
0
100
AcDbSymbolTable
 70
     0
  0
ENDTAB
  0
TABLE
  2
UCS
  5
7
330
0
100
AcDbSymbolTable
 70
     0
  0
ENDTAB
  0
TABLE
  2
APPID
  5
9
330
0
100
AcDbSymbolTable
 70
     1
  0
APPID
  5
12
330
9
100
AcDbSymbolTableRecord
100
AcDbRegAppTableRecord
  2
ACAD
 70
     0
  0
ENDTAB
  0
TABLE
  2
DIMSTYLE
  5
A
330
0
100
AcDbSymbolTable
 70
     1
100
AcDbDimStyleTable
  0
DIMSTYLE
105
27
330
A
100
AcDbSymbolTableRecord
100
AcDbDimStyleTableRecord
  2
ISO-25
 70
     0
 41
2.5
 42
0.625
 43
3.75
 44
1.25
 73
     0
 74
     0
 77
     1
 78
     8
140
2.5
141
2.5
143
0.0393700787
147
0.625
171
     3
172
     1
178
     0
271
     2
272
     2
274
     3
278
    44
283
     0
284
     8
340
11
  0
ENDTAB
  0
TABLE
  2
BLOCK_RECORD
  5
1
330
0
100
AcDbSymbolTable
 70
     5
  0
BLOCK_RECORD
  5
1F
330
1
100
AcDbSymbolTableRecord
100
AcDbBlockTableRecord
  2
*Model_Space
340
22
  0
BLOCK_RECORD
  5
1B
330
1
100
AcDbSymbolTableRecord
100
AcDbBlockTableRecord
  2
*Paper_Space
340
1E
  0
BLOCK_RECORD
  5
23
330
1
100
AcDbSymbolTableRecord
100
AcDbBlockTableRecord
  2
*Paper_Space0
340
26
  0
BLOCK_RECORD
  5
AB
330
1
100
AcDbSymbolTableRecord
100
AcDbBlockTableRecord
  2
SW_CENTERMARKSYMBOL_0
340
0
102
{BLKREFS
331
B6
102
}
  0
BLOCK_RECORD
  5
C9
330
1
100
AcDbSymbolTableRecord
100
AcDbBlockTableRecord
  2
SW_CENTERMARKSYMBOL_1
340
0
102
{BLKREFS
331
D4
102
}
  0
BLOCK_RECORD
  5
ED
330
1
100
AcDbSymbolTableRecord
100
AcDbBlockTableRecord
  2
SW_CENTERMARKSYMBOL_2
340
0
102
{BLKREFS
331
F8
102
}
  0
BLOCK_RECORD
  5
10B
330
1
100
AcDbSymbolTableRecord
100
AcDbBlockTableRecord
  2
SW_CENTERMARKSYMBOL_3
340
0
102
{BLKREFS
331
116
102
}
  0
ENDTAB
  0
ENDSEC
  0
SECTION
  2
BLOCKS
  0
BLOCK
  5
20
330
1F
100
AcDbEntity
  8
0
100
AcDbBlockBegin
  2
*Model_Space
 70
     0
 10
0.0
 20
0.0
 30
0.0
  3
*Model_Space
  1

  0
ENDBLK
  5
21
330
1F
100
AcDbEntity
  8
0
100
AcDbBlockEnd
  0
BLOCK
  5
1C
330
1B
100
AcDbEntity
 67
     1
  8
0
100
AcDbBlockBegin
  2
*Paper_Space
 70
     0
 10
0.0
 20
0.0
 30
0.0
  3
*Paper_Space
  1

  0
ENDBLK
  5
1D
330
1B
100
AcDbEntity
 67
     1
  8
0
100
AcDbBlockEnd
  0
BLOCK
  5
24
330
23
100
AcDbEntity
  8
0
100
AcDbBlockBegin
  2
*Paper_Space0
 70
     0
 10
0.0
 20
0.0
 30
0.0
  3
*Paper_Space0
  1

  0
ENDBLK
  5
25
330
23
100
AcDbEntity
  8
0
100
AcDbBlockEnd
  0
BLOCK
  5
AC
330
AB
100
AcDbEntity
  8
0
100
AcDbBlockBegin
  2
SW_CENTERMARKSYMBOL_0
 70
     0
 10
0.0
 20
0.0
 30
0.0
  3
SW_CENTERMARKSYMBOL_0
  1

  0
LINE
  5
AE
330
AB
100
AcDbEntity
  8
FORMAT
 62
     0
100
AcDbLine
 10
0.0
 20
0.0
 30
0.0
 11
0.0
 21
2.5
 31
0.0
  0
LINE
  5
AF
330
AB
100
AcDbEntity
  8
FORMAT
 62
     0
100
AcDbLine
 10
0.0
 20
0.0
 30
0.0
 11
-2.5
 21
0.0
 31
0.0
  0
LINE
  5
B0
330
AB
100
AcDbEntity
  8
FORMAT
 62
     0
100
AcDbLine
 10
0.0
 20
0.0
 30
0.0
 11
0.0
 21
-2.5
 31
0.0
  0
LINE
  5
B1
330
AB
100
AcDbEntity
  8
FORMAT
 62
     0
100
AcDbLine
 10
0.0
 20
0.0
 30
0.0
 11
2.5
 21
0.0
 31
0.0
  0
LINE
  5
B2
330
AB
100
AcDbEntity
  8
FORMAT
 62
     0
100
AcDbLine
 10
0.0
 20
5.0
 30
0.0
 11
0.0
 21
71.0
 31
0.0
  0
LINE
  5
B3
330
AB
100
AcDbEntity
  8
FORMAT
 62
     0
100
AcDbLine
 10
-5.0
 20
0.0
 30
0.0
 11
-71.0
 21
0.0
 31
0.0
  0
LINE
  5
B4
330
AB
100
AcDbEntity
  8
FORMAT
 62
     0
100
AcDbLine
 10
0.0
 20
-5.0
 30
0.0
 11
0.0
 21
-71.0
 31
0.0
  0
LINE
  5
B5
330
AB
100
AcDbEntity
  8
FORMAT
 62
     0
100
AcDbLine
 10
5.0
 20
0.0
 30
0.0
 11
71.0
 21
0.0
 31
0.0
  0
ENDBLK
  5
AD
330
AB
100
AcDbEntity
  8
0
100
AcDbBlockEnd
  0
BLOCK
  5
CA
330
C9
100
AcDbEntity
  8
0
100
AcDbBlockBegin
  2
SW_CENTERMARKSYMBOL_1
 70
     0
 10
0.0
 20
0.0
 30
0.0
  3
SW_CENTERMARKSYMBOL_1
  1

  0
LINE
  5
CC
330
C9
100
AcDbEntity
  8
FORMAT
 62
     0
100
AcDbLine
 10
0.0
 20
0.0
 30
0.0
 11
0.0
 21
2.5
 31
0.0
  0
LINE
  5
CD
330
C9
100
AcDbEntity
  8
FORMAT
 62
     0
100
AcDbLine
 10
0.0
 20
0.0
 30
0.0
 11
-2.5
 21
0.0
 31
0.0
  0
LINE
  5
CE
330
C9
100
AcDbEntity
  8
FORMAT
 62
     0
100
AcDbLine
 10
0.0
 20
0.0
 30
0.0
 11
0.0
 21
-2.5
 31
0.0
  0
LINE
  5
CF
330
C9
100
AcDbEntity
  8
FORMAT
 62
     0
100
AcDbLine
 10
0.0
 20
0.0
 30
0.0
 11
2.5
 21
0.0
 31
0.0
  0
LINE
  5
D0
330
C9
100
AcDbEntity
  8
FORMAT
 62
     0
100
AcDbLine
 10
0.0
 20
5.0
 30
0.0
 11
0.0
 21
71.0
 31
0.0
  0
LINE
  5
D1
330
C9
100
AcDbEntity
  8
FORMAT
 62
     0
100
AcDbLine
 10
-5.0
 20
0.0
 30
0.0
 11
-71.0
 21
0.0
 31
0.0
  0
LINE
  5
D2
330
C9
100
AcDbEntity
  8
FORMAT
 62
     0
100
AcDbLine
 10
0.0
 20
-5.0
 30
0.0
 11
0.0
 21
-71.0
 31
0.0
  0
LINE
  5
D3
330
C9
100
AcDbEntity
  8
FORMAT
 62
     0
100
AcDbLine
 10
5.0
 20
0.0
 30
0.0
 11
71.0
 21
0.0
 31
0.0
  0
ENDBLK
  5
CB
330
C9
100
AcDbEntity
  8
0
100
AcDbBlockEnd
  0
BLOCK
  5
EE
330
ED
100
AcDbEntity
  8
0
100
AcDbBlockBegin
  2
SW_CENTERMARKSYMBOL_2
 70
     0
 10
0.0
 20
0.0
 30
0.0
  3
SW_CENTERMARKSYMBOL_2
  1

  0
LINE
  5
F0
330
ED
100
AcDbEntity
  8
FORMAT
 62
     0
100
AcDbLine
 10
0.0
 20
0.0
 30
0.0
 11
0.0
 21
2.5
 31
0.0
  0
LINE
  5
F1
330
ED
100
AcDbEntity
  8
FORMAT
 62
     0
100
AcDbLine
 10
0.0
 20
0.0
 30
0.0
 11
-2.5
 21
0.0
 31
0.0
  0
LINE
  5
F2
330
ED
100
AcDbEntity
  8
FORMAT
 62
     0
100
AcDbLine
 10
0.0
 20
0.0
 30
0.0
 11
0.0
 21
-2.5
 31
0.0
  0
LINE
  5
F3
330
ED
100
AcDbEntity
  8
FORMAT
 62
     0
100
AcDbLine
 10
0.0
 20
0.0
 30
0.0
 11
2.5
 21
0.0
 31
0.0
  0
LINE
  5
F4
330
ED
100
AcDbEntity
  8
FORMAT
 62
     0
100
AcDbLine
 10
0.0
 20
5.0
 30
0.0
 11
0.0
 21
71.0
 31
0.0
  0
LINE
  5
F5
330
ED
100
AcDbEntity
  8
FORMAT
 62
     0
100
AcDbLine
 10
-5.0
 20
0.0
 30
0.0
 11
-71.0
 21
0.0
 31
0.0
  0
LINE
  5
F6
330
ED
100
AcDbEntity
  8
FORMAT
 62
     0
100
AcDbLine
 10
0.0
 20
-5.0
 30
0.0
 11
0.0
 21
-71.0
 31
0.0
  0
LINE
  5
F7
330
ED
100
AcDbEntity
  8
FORMAT
 62
     0
100
AcDbLine
 10
5.0
 20
0.0
 30
0.0
 11
71.0
 21
0.0
 31
0.0
  0
ENDBLK
  5
EF
330
ED
100
AcDbEntity
  8
0
100
AcDbBlockEnd
  0
BLOCK
  5
10C
330
10B
100
AcDbEntity
  8
0
100
AcDbBlockBegin
  2
SW_CENTERMARKSYMBOL_3
 70
     0
 10
0.0
 20
0.0
 30
0.0
  3
SW_CENTERMARKSYMBOL_3
  1

  0
LINE
  5
10E
330
10B
100
AcDbEntity
  8
FORMAT
 62
     0
100
AcDbLine
 10
0.0
 20
0.0
 30
0.0
 11
0.0
 21
2.5
 31
0.0
  0
LINE
  5
10F
330
10B
100
AcDbEntity
  8
FORMAT
 62
     0
100
AcDbLine
 10
0.0
 20
0.0
 30
0.0
 11
-2.5
 21
0.0
 31
0.0
  0
LINE
  5
110
330
10B
100
AcDbEntity
  8
FORMAT
 62
     0
100
AcDbLine
 10
0.0
 20
0.0
 30
0.0
 11
0.0
 21
-2.5
 31
0.0
  0
LINE
  5
111
330
10B
100
AcDbEntity
  8
FORMAT
 62
     0
100
AcDbLine
 10
0.0
 20
0.0
 30
0.0
 11
2.5
 21
0.0
 31
0.0
  0
LINE
  5
112
330
10B
100
AcDbEntity
  8
FORMAT
 62
     0
100
AcDbLine
 10
0.0
 20
5.0
 30
0.0
 11
0.0
 21
71.0
 31
0.0
  0
LINE
  5
113
330
10B
100
AcDbEntity
  8
FORMAT
 62
     0
100
AcDbLine
 10
-5.0
 20
0.0
 30
0.0
 11
-71.0
 21
0.0
 31
0.0
  0
LINE
  5
114
330
10B
100
AcDbEntity
  8
FORMAT
 62
     0
100
AcDbLine
 10
0.0
 20
-5.0
 30
0.0
 11
0.0
 21
-71.0
 31
0.0
  0
LINE
  5
115
330
10B
100
AcDbEntity
  8
FORMAT
 62
     0
100
AcDbLine
 10
5.0
 20
0.0
 30
0.0
 11
71.0
 21
0.0
 31
0.0
  0
ENDBLK
  5
10D
330
10B
100
AcDbEntity
  8
0
100
AcDbBlockEnd
  0
ENDSEC
  0
SECTION
  2
ENTITIES
  0
LINE
  5
83
330
1F
100
AcDbEntity
  8
0
  6
Continuous
 62
     7
370
    25
100
AcDbLine
 10
154.6648547232
 20
246.3994433701
 30
0.0
 11
86.9398912547
 21
178.6744799015
 31
0.0
  0
LINE
  5
84
330
1F
100
AcDbEntity
  8
0
  6
Continuous
 62
     7
370
    25
100
AcDbLine
 10
183.8135202772
 20
81.800850879
 30
0.0
 11
251.5384837457
 21
149.5258143475
 31
0.0
  0
ARC
  5
85
330
1F
100
AcDbEntity
  8
0
  6
Continuous
 62
     7
370
    25
100
AcDbCircle
 10
184.874180449
 20
80.7401907072
 30
0.0
 40
1.500000000000012
100
AcDbArc
 50
135.0
 51
180.0
  0
ARC
  5
86
330
1F
100
AcDbEntity
  8
0
  6
Continuous
 62
     7
370
    25
100
AcDbCircle
 10
184.874180449
 20
80.7401907072
 30
0.0
 40
138.5000000000001
100
AcDbArc
 50
135.0
 51
180.0
  0
LINE
  5
87
330
1F
100
AcDbEntity
  8
0
  6
Continuous
 62
     7
370
    25
100
AcDbLine
 10
46.374180449
 20
80.7401907072
 30
0.0
 11
46.374180449
 21
-15.0373711412
 31
0.0
  0
LINE
  5
88
330
1F
100
AcDbEntity
  8
0
  6
Continuous
 62
     7
370
    25
100
AcDbLine
 10
183.374180449
 20
-15.0373711412
 30
0.0
 11
183.374180449
 21
80.7401907072
 31
0.0
  0
CIRCLE
  5
89
330
1F
100
AcDbEntity
  8
0
  6
Continuous
 62
     7
370
    25
100
AcDbCircle
 10
114.874180449
 20
-5.0373711412
 30
0.0
 40
5.0
  0
CIRCLE
  5
8A
330
1F
100
AcDbEntity
  8
0
  6
Continuous
 62
     7
370
    25
100
AcDbCircle
 10
114.874180449
 20
-5.0373711412
 30
0.0
 40
7.0
  0
CIRCLE
  5
8B
330
1F
100
AcDbEntity
  8
0
  6
Continuous
 62
     7
370
    25
100
AcDbCircle
 10
196.0306014226
 20
190.8915610469
 30
0.0
 40
7.000000000000057
  0
CIRCLE
  5
8C
330
1F
100
AcDbEntity
  8
0
  6
Continuous
 62
     7
370
    25
100
AcDbCircle
 10
196.0306014226
 20
190.8915610469
 30
0.0
 40
5.000000000000057
  0
LINE
  5
8D
330
1F
100
AcDbEntity
  8
0
  6
Continuous
 62
     7
370
    25
100
AcDbLine
 10
203.1016692345
 20
197.9626288588
 30
0.0
 11
251.5384837457
 21
149.5258143475
 31
0.0
  0
LINE
  5
8E
330
1F
100
AcDbEntity
  8
0
  6
Continuous
 62
     7
370
    25
100
AcDbLine
 10
154.6648547232
 20
246.3994433701
 30
0.0
 11
203.1016692345
 21
197.9626288588
 31
0.0
  0
LINE
  5
8F
330
1F
100
AcDbEntity
  8
0
  6
Continuous
 62
     7
370
    25
100
AcDbLine
 10
114.874180449
 20
-15.0373711412
 30
0.0
 11
183.374180449
 21
-15.0373711412
 31
0.0
  0
LINE
  5
90
330
1F
100
AcDbEntity
  8
0
  6
Continuous
 62
     7
370
    25
100
AcDbLine
 10
46.374180449
 20
-15.0373711412
 30
0.0
 11
114.874180449
 21
-15.0373711412
 31
0.0
  0
LINE
  5
91
330
1F
100
AcDbEntity
  8
0
  6
Continuous
 62
     1
370
    25
100
AcDbLine
 10
135.3767057659
 20
130.2376653903
 30
0.0
 11
183.8135202772
 21
81.800850879
 31
0.0
  0
LINE
  5
92
330
1F
100
AcDbEntity
  8
0
  6
Continuous
 62
     1
370
    25
100
AcDbLine
 10
86.9398912547
 20
178.6744799015
 30
0.0
 11
135.3767057659
 21
130.2376653903
 31
0.0
  0
LINE
  5
93
330
1F
100
AcDbEntity
  8
0
  6
Continuous
 62
     1
370
    25
100
AcDbLine
 10
114.874180449
 20
80.7401907072
 30
0.0
 11
183.374180449
 21
80.7401907072
 31
0.0
  0
LINE
  5
94
330
1F
100
AcDbEntity
  8
0
  6
Continuous
 62
     1
370
    25
100
AcDbLine
 10
46.374180449
 20
80.7401907072
 30
0.0
 11
114.874180449
 21
80.7401907072
 31
0.0
  0
LINE
  5
95
330
1F
100
AcDbEntity
  8
0
  6
Continuous
 62
     7
370
    25
100
AcDbLine
 10
-258.0415881952
 20
183.8915610469
 30
0.0
 11
-258.0415881952
 21
130.2376653903
 31
0.0
  0
LINE
  5
96
330
1F
100
AcDbEntity
  8
0
  6
Continuous
 62
     7
370
    25
100
AcDbLine
 10
-258.0415881952
 20
197.9626288588
 30
0.0
 11
-258.0415881952
 21
195.7782594685
 31
0.0
  0
LINE
  5
97
330
1F
100
AcDbEntity
  8
0
  6
Continuous
 62
     7
370
    25
100
AcDbLine
 10
-121.0415881952
 20
130.2376653903
 30
0.0
 11
-121.0415881952
 21
197.9626288588
 31
0.0
  0
LINE
  5
98
330
1F
100
AcDbEntity
  8
0
  6
Continuous
 62
     7
370
    25
100
AcDbLine
 10
-258.0415881952
 20
197.8915610469
 30
0.0
 11
-274.0415881952
 21
197.8915610469
 31
0.0
  0
LINE
  5
99
330
1F
100
AcDbEntity
  8
0
  6
Continuous
 62
     7
370
    25
100
AcDbLine
 10
-274.0415881952
 20
183.8915610469
 30
0.0
 11
-257.8617511547
 21
183.8915610469
 31
0.0
  0
LINE
  5
9A
330
1F
100
AcDbEntity
  8
0
  6
Continuous
 62
     7
370
    25
100
AcDbLine
 10
-258.0415881952
 20
130.2376653903
 30
0.0
 11
-258.0415881952
 21
80.7401907072
 31
0.0
  0
LINE
  5
9B
330
1F
100
AcDbEntity
  8
0
  6
Continuous
 62
     7
370
    25
100
AcDbLine
 10
-121.0415881952
 20
80.7401907072
 30
0.0
 11
-121.0415881952
 21
130.2376653903
 31
0.0
  0
LINE
  5
9C
330
1F
100
AcDbEntity
  8
0
  6
Continuous
 62
     7
370
    25
100
AcDbLine
 10
-258.0415881952
 20
-11.9486879392
 30
0.0
 11
-258.0415881952
 21
-15.0373711412
 31
0.0
  0
LINE
  5
9D
330
1F
100
AcDbEntity
  8
0
  6
Continuous
 62
     7
370
    25
100
AcDbLine
 10
-258.0415881952
 20
80.7401907072
 30
0.0
 11
-258.0415881952
 21
1.9596165681
 31
0.0
  0
LINE
  5
9E
330
1F
100
AcDbEntity
  8
0
  6
Continuous
 62
     7
370
    25
100
AcDbLine
 10
-121.0415881952
 20
-15.0373711412
 30
0.0
 11
-121.0415881952
 21
80.7401907072
 31
0.0
  0
LINE
  5
9F
330
1F
100
AcDbEntity
  8
0
  6
Continuous
 62
     7
370
    25
100
AcDbLine
 10
-258.0412968855
 20
1.9626288588
 30
0.0
 11
-274.0415881952
 21
1.9626288588
 31
0.0
  0
LINE
  5
A0
330
1F
100
AcDbEntity
  8
0
  6
Continuous
 62
     7
370
    25
100
AcDbLine
 10
-274.0415881952
 20
-12.0373711412
 30
0.0
 11
-258.0326360474
 21
-12.0373711412
 31
0.0
  0
LWPOLYLINE
  5
A1
330
1F
100
AcDbEntity
  8
0
  6
Continuous
 62
     7
370
    25
100
AcDbPolyline
 90
      105
 70
   128
 43
0.0
 10
-258.0415881952
 20
197.9626288588
 10
-257.9166136595
 20
195.0380867787
 10
-257.5421460709
 20
192.1242160355
 10
-256.9195518211
 20
189.2316490275
 10
-256.0511026889
 20
186.3709404181
 10
-254.939967551
 20
183.5525286227
 10
-253.5902008191
 20
180.7866977203
 10
-252.0067276457
 20
178.083539928
 10
-250.1953259524
 20
175.4529187754
 10
-248.1626053478
 20
172.9044331138
 10
-245.9159830089
 20
170.447382091
 10
-243.4636566169
 20
168.0907312197
 10
-240.8145744449
 20
165.8430796634
 10
-237.9784027065
 20
163.7126288588
 10
-234.9654902847
 20
161.7071525899
 10
-231.7868309703
 20
159.8339686222
 10
-228.4540233463
 20
158.0999120007
 10
-224.9792284664
 20
156.5113101101
 10
-221.3751254802
 20
155.0739595863
 10
-217.6548653687
 20
153.7931051656
 10
-213.8320229576
 20
152.6734205468
 10
-209.9205473843
 20
151.7189913377
 10
-205.9347111989
 20
150.9333001469
 10
-201.8890582855
 20
150.3192138764
 10
-197.7983507927
 20
149.8789732604
 10
-193.6775152686
 20
149.6141846892
 10
-189.5415881952
 20
149.5258143475
 10
-185.4056611218
 20
149.6141846892
 10
-181.2848255977
 20
149.8789732604
 10
-177.1941181049
 20
150.3192138764
 10
-173.1484651915
 20
150.9333001469
 10
-169.1626290061
 20
151.7189913377
 10
-165.2511534328
 20
152.6734205468
 10
-161.4283110217
 20
153.7931051656
 10
-157.7080509102
 20
155.0739595863
 10
-154.103947924
 20
156.5113101101
 10
-150.6291530441
 20
158.0999120007
 10
-147.2963454201
 20
159.8339686222
 10
-144.1176861057
 20
161.7071525899
 10
-141.1047736839
 20
163.7126288588
 10
-138.2686019455
 20
165.8430796634
 10
-135.6195197735
 20
168.0907312197
 10
-133.1671933815
 20
170.447382091
 10
-130.9205710425
 20
172.9044331138
 10
-128.887850438
 20
175.4529187754
 10
-127.0764487447
 20
178.083539928
 10
-125.4929755712
 20
180.7866977203
 10
-124.1432088394
 20
183.5525286227
 10
-123.0320737015
 20
186.3709404181
 10
-122.1636245693
 20
189.2316490275
 10
-121.5410303195
 20
192.1242160355
 10
-121.1665627309
 20
195.0380867787
 10
-121.0415881952
 20
197.9626288588
 10
-121.1665627309
 20
200.8871709389
 10
-121.5410303195
 20
203.8010416821
 10
-122.1636245693
 20
206.6936086901
 10
-123.0320737015
 20
209.5543172995
 10
-124.1432088394
 20
212.3727290949
 10
-125.4929755712
 20
215.1385599973
 10
-127.0764487447
 20
217.8417177896
 10
-128.887850438
 20
220.4723389422
 10
-130.9205710425
 20
223.0208246038
 10
-133.1671933815
 20
225.4778756266
 10
-135.6195197735
 20
227.8345264979
 10
-138.2686019455
 20
230.0821780542
 10
-141.1047736839
 20
232.2126288588
 10
-144.1176861057
 20
234.2181051277
 10
-147.2963454201
 20
236.0912890954
 10
-150.6291530441
 20
237.8253457169
 10
-154.103947924
 20
239.4139476075
 10
-157.7080509102
 20
240.8512981313
 10
-161.4283110217
 20
242.132152552
 10
-165.2511534328
 20
243.2518371708
 10
-169.1626290061
 20
244.2062663799
 10
-173.1484651915
 20
244.9919575707
 10
-177.1941181049
 20
245.6060438412
 10
-181.2848255977
 20
246.0462844572
 10
-185.4056611218
 20
246.3110730284
 10
-189.5415881952
 20
246.3994433701
 10
-193.6775152686
 20
246.3110730284
 10
-197.7983507927
 20
246.0462844572
 10
-201.8890582855
 20
245.6060438412
 10
-205.9347111989
 20
244.9919575707
 10
-209.9205473843
 20
244.2062663799
 10
-213.8320229576
 20
243.2518371708
 10
-217.6548653687
 20
242.132152552
 10
-221.3751254802
 20
240.8512981313
 10
-224.9792284664
 20
239.4139476075
 10
-228.4540233463
 20
237.8253457169
 10
-231.7868309703
 20
236.0912890954
 10
-234.9654902847
 20
234.2181051277
 10
-237.9784027065
 20
232.2126288588
 10
-240.8145744449
 20
230.0821780542
 10
-243.4636566169
 20
227.8345264979
 10
-245.9159830089
 20
225.4778756266
 10
-248.1626053478
 20
223.0208246038
 10
-250.1953259524
 20
220.4723389422
 10
-252.0067276457
 20
217.8417177896
 10
-253.5902008192
 20
215.1385599973
 10
-254.939967551
 20
212.3727290949
 10
-256.0511026889
 20
209.5543172995
 10
-256.9195518211
 20
206.6936086901
 10
-257.5421460709
 20
203.8010416821
 10
-257.9166136595
 20
200.8871709389
 10
-258.0415881952
 20
197.9626288588
  0
LWPOLYLINE
  5
A2
330
1F
100
AcDbEntity
  8
0
  6
Continuous
 62
     7
370
    25
100
AcDbPolyline
 90
       94
 70
   128
 43
0.0
 10
-244.5415881952
 20
197.9626288588
 10
-244.4161120026
 20
200.5881418478
 10
-244.0402559439
 20
203.2016752232
 10
-243.4157349641
 20
205.7913040317
 10
-242.5453986091
 20
208.3452123909
 10
-241.4332180242
 20
210.8517474028
 10
-240.0842678343
 20
213.2994723231
 10
-238.5047029897
 20
215.6772187443
 10
-236.7017306824
 20
217.9741375549
 10
-234.6835774616
 20
220.1797484411
 10
-232.4594516976
 20
222.2839877064
 10
-230.039501566
 20
224.2772541897
 10
-227.4347687444
 20
226.1504530731
 10
-224.657138031
 20
227.8950373797
 10
-221.7192831179
 20
229.5030469716
 10
-218.6346087632
 20
230.9671448697
 10
-215.4171896284
 20
232.2806507312
 10
-212.081706059
 20
233.4375713301
 10
-208.6433771017
 20
234.432627903
 10
-205.1178910627
 20
235.2612802351
 10
-201.5213339264
 20
235.9197473757
 10
-197.870115958
 20
236.4050248904
 10
-194.1808968276
 20
236.7148985692
 10
-190.470509596
 20
236.8479545295
 10
-186.7558839091
 20
236.8035856675
 10
-183.0539687519
 20
236.5819944282
 10
-179.3816551143
 20
236.1841918815
 10
-175.755698921
 20
235.6119931092
 10
-172.1926445785
 20
234.8680089231
 10
-168.7087494866
 20
233.9556339524
 10
-165.3199098595
 20
232.8790311549
 10
-162.0415881952
 20
231.6431128221
 10
-158.8887427235
 20
230.2535181659
 10
-155.8757591551
 20
228.7165875881
 10
-153.016385043
 20
227.0393337503
 10
-150.3236670555
 20
225.2294095771
 10
-147.8098914471
 20
223.2950733374
 10
-145.4865279994
 20
221.2451509638
 10
-143.3641776869
 20
219.088995782
 10
-141.4525243072
 20
216.8364458334
 10
-139.7602902964
 20
214.4977789868
 10
-138.2951969301
 20
212.0836660428
 10
-137.0639290932
 20
209.6051220448
 10
-136.0721047785
 20
207.0734560208
 10
-135.3242494529
 20
204.5002193821
 10
-134.8237754086
 20
201.8971532173
 10
-134.5729661941
 20
199.2761347203
 10
-134.5729661941
 20
196.6491229973
 10
-134.8237754086
 20
194.0281045003
 10
-135.3242494529
 20
191.4250383355
 10
-136.0721047785
 20
188.8518016968
 10
-137.0639290932
 20
186.3201356728
 10
-138.2951969301
 20
183.8415916748
 10
-139.7602902964
 20
181.4274787307
 10
-141.4525243072
 20
179.0888118842
 10
-143.3641776869
 20
176.8362619356
 10
-145.4865279994
 20
174.6801067538
 10
-147.8098914471
 20
172.6301843802
 10
-150.3236670555
 20
170.6958481405
 10
-153.016385043
 20
168.8859239673
 10
-155.8757591551
 20
167.2086701295
 10
-158.8887427235
 20
165.6717395517
 10
-162.0415881952
 20
164.2821448955
 10
-165.3199098595
 20
163.0462265627
 10
-168.7087494866
 20
161.9696237652
 10
-172.1926445785
 20
161.0572487945
 10
-175.755698921
 20
160.3132646084
 10
-179.3816551143
 20
159.7410658361
 10
-183.0539687519
 20
159.3432632894
 10
-186.7558839091
 20
159.1216720501
 10
-190.470509596
 20
159.0773031881
 10
-194.1808968276
 20
159.2103591484
 10
-197.870115958
 20
159.5202328272
 10
-201.5213339264
 20
160.0055103419
 10
-205.1178910627
 20
160.6639774825
 10
-208.6433771017
 20
161.4926298146
 10
-212.081706059
 20
162.4876863875
 10
-215.4171896284
 20
163.6446069864
 10
-218.6346087632
 20
164.9581128479
 10
-221.7192831179
 20
166.422210746
 10
-224.657138031
 20
168.0302203379
 10
-227.4347687444
 20
169.7748046445
 10
-230.039501566
 20
171.6480035279
 10
-232.4594516976
 20
173.6412700111
 10
-234.6835774616
 20
175.7455092765
 10
-236.7017306824
 20
177.9511201627
 10
-238.5047029897
 20
180.2480389733
 10
-240.0842678343
 20
182.6257853945
 10
-241.4332180242
 20
185.0735103148
 10
-242.5453986091
 20
187.5800453267
 10
-243.4157349641
 20
190.1339536859
 10
-244.0402559439
 20
192.7235824944
 10
-244.4161120026
 20
195.3371158698
 10
-244.5415881952
 20
197.9626288588
  0
SPLINE
  5
A3
330
1F
100
AcDbEntity
  8
0
  6
Continuous
 62
     7
370
    25
100
AcDbSpline
210
0.0
220
0.0
230
1.0
 70
     8
 71
     3
 72
    15
 73
    11
 74
     0
 42
0.00000001
 43
0.00000001
 40
0.0
 40
0.0
 40
0.0
 40
0.0
 40
0.0475537882174479
 40
0.1910223235465326
 40
0.3342226205104885
 40
0.4767654152745351
 40
0.6192899809182892
 40
0.7624606622234326
 40
0.9059370278682782
 40
1.0
 40
1.0
 40
1.0
 40
1.0
 10
-257.8617511547223
 20
183.9792546170269
 30
0.0
 10
-257.8486246520765
 20
183.9550918645147
 30
0.0
 10
-257.7958958342588
 20
183.858030719627
 30
0.0
 10
-257.7106466283169
 20
184.5010785975357
 30
0.0
 10
-257.6689607574484
 20
185.846570691065
 30
0.0
 10
-257.7114508160499
 20
187.8077634989187
 30
0.0
 10
-257.8204117228083
 20
190.102687577712
 30
0.0
 10
-257.9448207795288
 20
192.473045880226
 30
0.0
 10
-258.0329457424252
 20
194.4895876876071
 30
0.0
 10
-258.0326691981535
 20
195.4127369817006
 30
0.0
 10
-258.0325596896553
 20
195.7782939759085
 30
0.0
  0
LINE
  5
A4
330
1F
100
AcDbEntity
  8
0
  6
Continuous
 62
     7
370
    25
100
AcDbLine
 10
-274.0415881952
 20
197.8915610469
 30
0.0
 11
-274.0415881952
 21
183.8915610469
 31
0.0
  0
LINE
  5
A5
330
1F
100
AcDbEntity
  8
0
  6
Continuous
 62
     7
370
    25
100
AcDbLine
 10
-258.0415881952
 20
-15.0373711412
 30
0.0
 11
-121.0415881952
 21
-15.0373711412
 31
0.0
  0
SPLINE
  5
A6
330
1F
100
AcDbEntity
  8
0
  6
Continuous
 62
     7
370
    25
100
AcDbSpline
210
0.0
220
0.0
230
1.0
 70
     8
 71
     3
 72
    17
 73
    13
 74
     0
 42
0.00000001
 43
0.00000001
 40
0.0
 40
0.0
 40
0.0
 40
0.0
 40
0.0362545484605123
 40
0.1430386187755885
 40
0.2500227221396967
 40
0.3574939652604198
 40
0.4649840116272768
 40
0.5719882848113892
 40
0.6787621747899868
 40
0.785918400443291
 40
0.8934743010277172
 40
1.0
 40
1.0
 40
1.0
 40
1.0
 10
-258.0326093966781
 20
-11.94868793921956
 30
0.0
 10
-258.035083660738
 20
-11.97315860856504
 30
0.0
 10
-258.044845616924
 20
-12.06970513561678
 30
0.0
 10
-257.9793604086572
 20
-11.42797391805105
 30
0.0
 10
-257.8634215966558
 20
-10.08964320377474
 30
0.0
 10
-257.7413993433737
 20
-8.126758684756354
 30
0.0
 10
-257.6736602527353
 20
-5.82717838717986
 30
0.0
 10
-257.6882986768895
 20
-3.440378539899275
 30
0.0
 10
-257.7792460605119
 20
-1.234007843282856
 30
0.0
 10
-257.9048430270935
 20
0.5337773576393687
 30
0.0
 10
-258.0175204909788
 20
1.733532406540689
 30
0.0
 10
-258.0333914712817
 20
1.8844973383026
 30
0.0
 10
-258.0412887743364
 20
1.959616568117488
 30
0.0
  0
LINE
  5
A7
330
1F
100
AcDbEntity
  8
0
  6
Continuous
 62
     7
370
    25
100
AcDbLine
 10
-274.0415881952
 20
1.9626288588
 30
0.0
 11
-274.0415881952
 21
-12.0373711412
 31
0.0
  0
LWPOLYLINE
  5
A8
330
1F
100
AcDbEntity
  8
0
  6
Continuous
 62
     1
370
    25
100
AcDbPolyline
 90
       54
 70
   128
 43
0.0
 10
-258.0415881952
 20
130.2376653903
 10
-257.9166136595
 20
127.3131233102
 10
-257.5421460709
 20
124.3992525669
 10
-256.9195518211
 20
121.506685559
 10
-256.0511026889
 20
118.6459769495
 10
-254.939967551
 20
115.8275651541
 10
-253.5902008191
 20
113.0617342518
 10
-252.0067276457
 20
110.3585764595
 10
-250.1953259524
 20
107.7279553069
 10
-248.1626053478
 20
105.1794696453
 10
-245.9159830089
 20
102.7224186225
 10
-243.4636566169
 20
100.3657677512
 10
-240.8145744449
 20
98.1181161948
 10
-237.9784027065
 20
95.9876653903
 10
-234.9654902847
 20
93.9821891214
 10
-231.7868309703
 20
92.1090051537
 10
-228.4540233463
 20
90.3749485322
 10
-224.9792284664
 20
88.7863466416
 10
-221.3751254802
 20
87.3489961178
 10
-217.6548653687
 20
86.0681416971
 10
-213.8320229576
 20
84.9484570783
 10
-209.9205473843
 20
83.9940278691
 10
-205.9347111989
 20
83.2083366784
 10
-201.8890582855
 20
82.5942504079
 10
-197.7983507927
 20
82.1540097919
 10
-193.6775152686
 20
81.8892212207
 10
-189.5415881952
 20
81.800850879
 10
-185.4056611218
 20
81.8892212207
 10
-181.2848255977
 20
82.1540097919
 10
-177.1941181049
 20
82.5942504079
 10
-173.1484651915
 20
83.2083366784
 10
-169.1626290061
 20
83.9940278691
 10
-165.2511534328
 20
84.9484570783
 10
-161.4283110217
 20
86.0681416971
 10
-157.7080509102
 20
87.3489961178
 10
-154.103947924
 20
88.7863466416
 10
-150.6291530441
 20
90.3749485322
 10
-147.2963454201
 20
92.1090051537
 10
-144.1176861057
 20
93.9821891214
 10
-141.1047736839
 20
95.9876653903
 10
-138.2686019455
 20
98.1181161948
 10
-135.6195197735
 20
100.3657677512
 10
-133.1671933815
 20
102.7224186225
 10
-130.9205710425
 20
105.1794696453
 10
-128.887850438
 20
107.7279553069
 10
-127.0764487447
 20
110.3585764595
 10
-125.4929755712
 20
113.0617342518
 10
-124.1432088394
 20
115.8275651541
 10
-123.0320737015
 20
118.6459769495
 10
-122.1636245693
 20
121.506685559
 10
-121.5410303195
 20
124.3992525669
 10
-121.1665627309
 20
127.3131233102
 10
-121.0415881952
 20
130.2376653903
 10
-121.0415881952
 20
130.2376653903
  0
ARC
  5
A9
330
1F
100
AcDbEntity
  8
0
  6
Continuous
 62
     1
370
    25
100
AcDbCircle
 10
-189.5415881952
 20
94.3342009736
 30
0.0
 40
74.82614452136136
100
AcDbArc
 50
68.8079432222
 51
111.1920567778
  0
LINE
  5
AA
330
1F
100
AcDbEntity
  8
0
  6
Continuous
 62
     1
370
    25
100
AcDbLine
 10
-258.0415881952
 20
80.7401907072
 30
0.0
 11
-121.0415881952
 21
80.7401907072
 31
0.0
  0
INSERT
  5
B6
330
1F
100
AcDbEntity
  8
FORMAT
 62
     7
100
AcDbBlockReference
  2
SW_CENTERMARKSYMBOL_0
 10
-189.5415881952
 20
119.9626288588
 30
0.0
  0
LINE
  5
B7
330
1F
100
AcDbEntity
  8
0
  6
Continuous
 62
     7
370
    25
100
AcDbLine
 10
121.874180449
 20
425.6880562506
 30
0.0
 11
121.874180449
 21
442.0378144799
 31
0.0
  0
LINE
  5
B8
330
1F
100
AcDbEntity
  8
0
  6
Continuous
 62
     7
370
    25
100
AcDbLine
 10
107.874180449
 20
442.0378144799
 30
0.0
 11
107.874180449
 21
425.6792115891
 31
0.0
  0
LINE
  5
B9
330
1F
100
AcDbEntity
  8
0
  6
Continuous
 62
     7
370
    25
100
AcDbLine
 10
135.3767057659
 20
426.0378144799
 30
0.0
 11
121.874180449
 21
426.0378144799
 31
0.0
  0
LINE
  5
BA
330
1F
100
AcDbEntity
  8
0
  6
Continuous
 62
     7
370
    25
100
AcDbLine
 10
114.874180449
 20
289.0378144799
 30
0.0
 11
135.3767057659
 21
289.0378144799
 31
0.0
  0
LINE
  5
BB
330
1F
100
AcDbEntity
  8
0
  6
Continuous
 62
     7
370
    25
100
AcDbLine
 10
191.1426596764
 20
426.0378144799
 30
0.0
 11
135.3767057659
 21
426.0378144799
 31
0.0
  0
LINE
  5
BC
330
1F
100
AcDbEntity
  8
0
  6
Continuous
 62
     7
370
    25
100
AcDbLine
 10
203.1016692345
 20
426.0378144799
 30
0.0
 11
203.0306014226
 21
426.0378144799
 31
0.0
  0
LINE
  5
BD
330
1F
100
AcDbEntity
  8
0
  6
Continuous
 62
     7
370
    25
100
AcDbLine
 10
135.3767057659
 20
289.0378144799
 30
0.0
 11
203.1016692345
 21
289.0378144799
 31
0.0
  0
LINE
  5
BE
330
1F
100
AcDbEntity
  8
0
  6
Continuous
 62
     7
370
    25
100
AcDbLine
 10
203.0306014226
 20
425.8579676771
 30
0.0
 11
203.0306014226
 21
442.0378144799
 31
0.0
  0
LINE
  5
BF
330
1F
100
AcDbEntity
  8
0
  6
Continuous
 62
     7
370
    25
100
AcDbLine
 10
189.0306014226
 20
442.0378144799
 30
0.0
 11
189.0306014226
 21
426.0378144799
 31
0.0
  0
CIRCLE
  5
C0
330
1F
100
AcDbEntity
  8
0
  6
Continuous
 62
     7
370
    25
100
AcDbCircle
 10
114.874180449
 20
357.5378144799
 30
0.0
 40
55.0
  0
CIRCLE
  5
C1
330
1F
100
AcDbEntity
  8
0
  6
Continuous
 62
     7
370
    25
100
AcDbCircle
 10
114.874180449
 20
357.5378144799
 30
0.0
 40
68.5
  0
LINE
  5
C2
330
1F
100
AcDbEntity
  8
0
  6
Continuous
 62
     7
370
    25
100
AcDbLine
 10
121.874180449
 20
442.0378144799
 30
0.0
 11
107.874180449
 21
442.0378144799
 31
0.0
  0
LWPOLYLINE
  5
C3
330
1F
100
AcDbEntity
  8
0
  6
Continuous
 62
     7
370
    25
100
AcDbPolyline
 90
       54
 70
   128
 43
0.0
 10
203.1016692345
 20
426.0378144799
 10
206.0262113146
 20
425.9128399442
 10
208.9400820578
 20
425.5383723556
 10
211.8326490658
 20
424.9157781057
 10
214.6933576752
 20
424.0473289736
 10
217.5117694706
 20
422.9361938357
 10
220.2776003729
 20
421.5864271038
 10
222.9807581652
 20
420.0029539303
 10
225.6113793178
 20
418.1915522371
 10
228.1598649795
 20
416.1588316325
 10
230.6169160023
 20
413.9122092936
 10
232.9735668736
 20
411.4598829016
 10
235.2212184299
 20
408.8108007296
 10
237.3516692345
 20
405.9746289911
 10
239.3571455033
 20
402.9617165694
 10
241.2303294711
 20
399.7830572549
 10
242.9643860925
 20
396.450249631
 10
244.5529879832
 20
392.975454751
 10
245.9903385069
 20
389.3713517649
 10
247.2711929276
 20
385.6510916534
 10
248.3908775464
 20
381.8282492423
 10
249.3453067556
 20
377.9167736689
 10
250.1309979464
 20
373.9309374836
 10
250.7450842169
 20
369.8852845701
 10
251.1853248329
 20
365.7945770774
 10
251.4501134041
 20
361.6737415533
 10
251.5384837457
 20
357.5378144799
 10
251.4501134041
 20
353.4018874064
 10
251.1853248329
 20
349.2810518824
 10
250.7450842169
 20
345.1903443896
 10
250.1309979464
 20
341.1446914762
 10
249.3453067556
 20
337.1588552908
 10
248.3908775464
 20
333.2473797175
 10
247.2711929276
 20
329.4245373064
 10
245.9903385069
 20
325.7042771949
 10
244.5529879832
 20
322.1001742087
 10
242.9643860925
 20
318.6253793288
 10
241.2303294711
 20
315.2925717048
 10
239.3571455033
 20
312.1139123904
 10
237.3516692345
 20
309.1009999686
 10
235.2212184299
 20
306.2648282301
 10
232.9735668736
 20
303.6157460581
 10
230.6169160023
 20
301.1634196662
 10
228.1598649795
 20
298.9167973272
 10
225.6113793178
 20
296.8840767226
 10
222.9807581652
 20
295.0726750294
 10
220.2776003729
 20
293.4892018559
 10
217.5117694706
 20
292.139435124
 10
214.6933576752
 20
291.0282999862
 10
211.8326490658
 20
290.159850854
 10
208.9400820578
 20
289.5372566041
 10
206.0262113146
 20
289.1627890156
 10
203.1016692345
 20
289.0378144799
 10
203.1016692345
 20
289.0378144799
  0
SPLINE
  5
C4
330
1F
100
AcDbEntity
  8
0
  6
Continuous
 62
     7
370
    25
100
AcDbSpline
210
0.0
220
0.0
230
1.0
 70
     8
 71
     3
 72
    15
 73
    11
 74
     0
 42
0.00000001
 43
0.00000001
 40
0.0
 40
0.0
 40
0.0
 40
0.0
 40
0.0955246293729935
 40
0.2379578803540362
 40
0.3808925053045598
 40
0.5243607145134163
 40
0.66756068596688
 40
0.8101031567150115
 40
0.9526273983842876
 40
1.0
 40
1.0
 40
1.0
 40
1.0
 10
191.1426235049026
 20
426.0289665496169
 30
0.0
 10
191.5150952329027
 20
426.0289011891585
 30
0.0
 10
192.4429458141454
 20
426.0287383721318
 30
0.0
 10
194.4601364197162
 20
425.9404951962463
 30
0.0
 10
196.8289931099983
 20
425.816134068387
 30
0.0
 10
199.1307460022683
 20
425.7069519491803
 30
0.0
 10
201.0919561829881
 20
425.6651874669479
 30
0.0
 10
202.4273428597067
 20
425.7075972704743
 30
0.0
 10
203.0643512269549
 20
425.7924933936794
 30
0.0
 10
202.9671162869683
 20
425.8448952515876
 30
0.0
 10
202.942859580035
 20
425.8579676770985
 30
0.0
  0
ARC
  5
C5
330
1F
100
AcDbEntity
  8
0
  6
Continuous
 62
     7
370
    25
100
AcDbCircle
 10
240.5296332974
 20
357.5378144799
 30
0.0
 40
76.32774988083516
100
AcDbArc
 50
165.7310199541
 51
194.2689800459
  0
LINE
  5
C6
330
1F
100
AcDbEntity
  8
0
  6
Continuous
 62
     7
370
    25
100
AcDbLine
 10
203.0306014226
 20
442.0378144799
 30
0.0
 11
189.0306014226
 21
442.0378144799
 31
0.0
  0
LWPOLYLINE
  5
C7
330
1F
100
AcDbEntity
  8
0
  6
Continuous
 62
     1
370
    25
100
AcDbPolyline
 90
       54
 70
   128
 43
0.0
 10
135.3767057659
 20
426.0378144799
 10
138.301247846
 20
425.9128399442
 10
141.2151185893
 20
425.5383723556
 10
144.1076855973
 20
424.9157781057
 10
146.9683942067
 20
424.0473289736
 10
149.7868060021
 20
422.9361938357
 10
152.5526369044
 20
421.5864271038
 10
155.2557946967
 20
420.0029539303
 10
157.8864158493
 20
418.1915522371
 10
160.4349015109
 20
416.1588316325
 10
162.8919525337
 20
413.9122092936
 10
165.248603405
 20
411.4598829016
 10
167.4962549614
 20
408.8108007296
 10
169.6267057659
 20
405.9746289911
 10
171.6321820348
 20
402.9617165694
 10
173.5053660025
 20
399.7830572549
 10
175.239422624
 20
396.450249631
 10
176.8280245146
 20
392.975454751
 10
178.2653750384
 20
389.3713517649
 10
179.5462294591
 20
385.6510916534
 10
180.6659140779
 20
381.8282492423
 10
181.6203432871
 20
377.9167736689
 10
182.4060344778
 20
373.9309374836
 10
183.0201207483
 20
369.8852845701
 10
183.4603613643
 20
365.7945770774
 10
183.7251499355
 20
361.6737415533
 10
183.8135202772
 20
357.5378144799
 10
183.7251499355
 20
353.4018874064
 10
183.4603613643
 20
349.2810518824
 10
183.0201207483
 20
345.1903443896
 10
182.4060344778
 20
341.1446914762
 10
181.6203432871
 20
337.1588552908
 10
180.6659140779
 20
333.2473797175
 10
179.5462294591
 20
329.4245373064
 10
178.2653750384
 20
325.7042771949
 10
176.8280245146
 20
322.1001742087
 10
175.239422624
 20
318.6253793288
 10
173.5053660025
 20
315.2925717048
 10
171.6321820348
 20
312.1139123904
 10
169.6267057659
 20
309.1009999686
 10
167.4962549614
 20
306.2648282301
 10
165.248603405
 20
303.6157460581
 10
162.8919525337
 20
301.1634196662
 10
160.4349015109
 20
298.9167973272
 10
157.8864158493
 20
296.8840767226
 10
155.2557946967
 20
295.0726750294
 10
152.5526369044
 20
293.4892018559
 10
149.7868060021
 20
292.139435124
 10
146.9683942067
 20
291.0282999862
 10
144.1076855973
 20
290.159850854
 10
141.2151185893
 20
289.5372566041
 10
138.301247846
 20
289.1627890156
 10
135.3767057659
 20
289.0378144799
 10
135.3767057659
 20
289.0378144799
  0
LWPOLYLINE
  5
C8
330
1F
100
AcDbEntity
  8
0
  6
Continuous
 62
     1
370
    25
100
AcDbPolyline
 90
       42
 70
   128
 43
0.0
 10
126.8842817168
 20
411.210502763
 10
124.9941222338
 20
410.5416248938
 10
122.4875872219
 20
409.4294443089
 10
120.0398623016
 20
408.080494119
 10
117.6621158804
 20
406.5009292743
 10
115.3651970698
 20
404.6979569671
 10
113.1595861836
 20
402.6798037463
 10
111.0553469183
 20
400.4556779822
 10
109.062080435
 20
398.0357278507
 10
107.1888815517
 20
395.430995029
 10
105.444297245
 20
392.6533643157
 10
103.8362876531
 20
389.7155094026
 10
102.372189755
 20
386.6308350478
 10
101.0586838935
 20
383.413415913
 10
99.9017632946
 20
380.0779323437
 10
98.9067067217
 20
376.6396033863
 10
98.0780543897
 20
373.1141173474
 10
97.419587249
 20
369.5175602111
 10
96.9343097343
 20
365.8663422426
 10
96.6244360555
 20
362.1771231122
 10
96.4913800952
 20
358.4667358806
 10
96.5357489572
 20
354.7521101937
 10
96.7573401966
 20
351.0501950366
 10
97.1551427433
 20
347.3778813989
 10
97.7273415155
 20
343.7519252056
 10
98.4713257016
 20
340.1888708632
 10
99.3837006723
 20
336.7049757713
 10
100.4603034699
 20
333.3161361442
 10
101.6962218027
 20
330.0378144799
 10
103.0858164588
 20
326.8849690081
 10
104.6227470367
 20
323.8719854397
 10
106.3000008745
 20
321.0126113277
 10
108.1099250476
 20
318.3198933401
 10
110.0442612873
 20
315.8061177318
 10
112.0941836609
 20
313.4827542841
 10
114.2503388428
 20
311.3604039715
 10
116.5028887913
 20
309.4487505919
 10
118.8415556379
 20
307.7565165811
 10
121.255668582
 20
306.2914232147
 10
123.7342125799
 20
305.0601553779
 10
126.2658786039
 20
304.0683310632
 10
126.8842817168
 20
303.8651261967
  0
INSERT
  5
D4
330
1F
100
AcDbEntity
  8
FORMAT
 62
     7
100
AcDbBlockReference
  2
SW_CENTERMARKSYMBOL_1
 10
114.874180449
 20
357.5378144799
 30
0.0
  0
LINE
  5
D5
330
1F
100
AcDbEntity
  8
0
  6
Continuous
 62
     7
370
    25
100
AcDbLine
 10
404.6058725483
 20
80.7401907072
 30
0.0
 11
404.6058725483
 21
-15.0373711412
 31
0.0
  0
LINE
  5
D6
330
1F
100
AcDbEntity
  8
0
  6
Continuous
 62
     7
370
    25
100
AcDbLine
 10
541.6058725483
 20
1.9596165681
 30
0.0
 11
541.6058725483
 21
80.7401907072
 31
0.0
  0
LINE
  5
D7
330
1F
100
AcDbEntity
  8
0
  6
Continuous
 62
     7
370
    25
100
AcDbLine
 10
541.6058725483
 20
-15.0373711412
 30
0.0
 11
541.6058725483
 21
-11.9486879392
 31
0.0
  0
LINE
  5
D8
330
1F
100
AcDbEntity
  8
0
  6
Continuous
 62
     7
370
    25
100
AcDbLine
 10
541.6058725483
 20
80.7401907072
 30
0.0
 11
541.6058725483
 21
130.2376653903
 31
0.0
  0
LINE
  5
D9
330
1F
100
AcDbEntity
  8
0
  6
Continuous
 62
     7
370
    25
100
AcDbLine
 10
404.6058725483
 20
130.2376653903
 30
0.0
 11
404.6058725483
 21
80.7401907072
 31
0.0
  0
LINE
  5
DA
330
1F
100
AcDbEntity
  8
0
  6
Continuous
 62
     7
370
    25
100
AcDbLine
 10
404.6058725483
 20
197.9626288588
 30
0.0
 11
404.6058725483
 21
130.2376653903
 31
0.0
  0
LINE
  5
DB
330
1F
100
AcDbEntity
  8
0
  6
Continuous
 62
     7
370
    25
100
AcDbLine
 10
541.6058725483
 20
197.8915610469
 30
0.0
 11
541.6058725483
 21
197.9626288588
 31
0.0
  0
LINE
  5
DC
330
1F
100
AcDbEntity
  8
0
  6
Continuous
 62
     7
370
    25
100
AcDbLine
 10
541.6058725483
 20
130.2376653903
 30
0.0
 11
541.6058725483
 21
186.0036193007
 31
0.0
  0
LINE
  5
DD
330
1F
100
AcDbEntity
  8
0
  6
Continuous
 62
     7
370
    25
100
AcDbLine
 10
541.6058725483
 20
-12.0373711412
 30
0.0
 11
557.6058725483
 21
-12.0373711412
 31
0.0
  0
LINE
  5
DE
330
1F
100
AcDbEntity
  8
0
  6
Continuous
 62
     7
370
    25
100
AcDbLine
 10
557.6058725483
 20
1.9626288588
 30
0.0
 11
541.6055812386
 21
1.9626288588
 31
0.0
  0
LINE
  5
DF
330
1F
100
AcDbEntity
  8
0
  6
Continuous
 62
     7
370
    25
100
AcDbLine
 10
541.6058725483
 20
183.8915610469
 30
0.0
 11
557.6058725483
 21
183.8915610469
 31
0.0
  0
LINE
  5
E0
330
1F
100
AcDbEntity
  8
0
  6
Continuous
 62
     7
370
    25
100
AcDbLine
 10
557.6058725483
 20
197.8915610469
 30
0.0
 11
541.4267772608
 21
197.8915610469
 31
0.0
  0
LINE
  5
E1
330
1F
100
AcDbEntity
  8
0
  6
Continuous
 62
     7
370
    25
100
AcDbLine
 10
404.6058725483
 20
-15.0373711412
 30
0.0
 11
541.6058725483
 21
-15.0373711412
 31
0.0
  0
SPLINE
  5
E2
330
1F
100
AcDbEntity
  8
0
  6
Continuous
 62
     7
370
    25
100
AcDbSpline
210
0.0
220
0.0
230
1.0
 70
     8
 71
     3
 72
    12
 73
     8
 74
     0
 42
0.00000001
 43
0.00000001
 40
0.0
 40
0.0
 40
0.0
 40
0.0
 40
0.2140743523277814
 40
0.4281215610174589
 40
0.6428725700922053
 40
0.8580873644585658
 40
1.0
 40
1.0
 40
1.0
 40
1.0
 10
541.2472696575475
 20
-5.037371141202083
 30
0.0
 10
541.2553621183064
 20
-5.821785255878654
 30
0.0
 10
541.2715460137379
 20
-7.39051402514878
 30
0.0
 10
541.3851643472317
 20
-9.487496652022518
 30
0.0
 10
541.5083954019568
 20
-11.05765982568413
 30
0.0
 10
541.597112921556
 20
-11.95261618663997
 30
0.0
 10
541.5969560759271
 20
-11.94980501975695
 30
0.0
 10
541.5968937497805
 20
-11.94868793921956
 30
0.0
  0
SPLINE
  5
E3
330
1F
100
AcDbEntity
  8
0
  6
Continuous
 62
     7
370
    25
100
AcDbSpline
210
0.0
220
0.0
230
1.0
 70
     8
 71
     3
 72
    13
 73
     9
 74
     0
 42
0.00000001
 43
0.00000001
 40
0.0
 40
0.0
 40
0.0
 40
0.0
 40
0.001649852985759
 40
0.215317241824084
 40
0.428959406432272
 40
0.6435587426000305
 40
0.8586205147494717
 40
1.0
 40
1.0
 40
1.0
 40
1.0
 10
541.6055731274388
 20
1.95961656811754
 30
0.0
 10
541.6056728803029
 20
1.960620188471308
 30
0.0
 10
541.618691319987
 20
2.091599595895423
 30
0.0
 10
541.5714117734428
 20
1.630704088495711
 30
0.0
 10
541.4707278686494
 20
0.5492269220974122
 30
0.0
 10
541.3426702582088
 20
-1.254743936007063
 30
0.0
 10
541.2597694669068
 20
-3.215970068016667
 30
0.0
 10
541.2508195630887
 20
-4.520099111132215
 30
0.0
 10
541.2472696575475
 20
-5.037371141202083
 30
0.0
  0
LWPOLYLINE
  5
E4
330
1F
100
AcDbEntity
  8
0
  6
Continuous
 62
     7
370
    25
100
AcDbPolyline
 90
       53
 70
   128
 43
0.0
 10
404.6058725483
 20
197.9626288588
 10
404.730847084
 20
200.8871709389
 10
405.1053146726
 20
203.8010416821
 10
405.7279089224
 20
206.6936086901
 10
406.5963580546
 20
209.5543172995
 10
407.7074931925
 20
212.3727290949
 10
409.0572599244
 20
215.1385599973
 10
410.6407330978
 20
217.8417177896
 10
412.4521347911
 20
220.4723389422
 10
414.4848553957
 20
223.0208246038
 10
416.7314777346
 20
225.4778756266
 10
419.1838041266
 20
227.8345264979
 10
421.8328862986
 20
230.0821780542
 10
424.669058037
 20
232.2126288588
 10
427.6819704588
 20
234.2181051277
 10
430.8606297732
 20
236.0912890954
 10
434.1934373972
 20
237.8253457169
 10
437.6682322771
 20
239.4139476075
 10
441.2723352633
 20
240.8512981313
 10
444.9925953748
 20
242.132152552
 10
448.8154377859
 20
243.2518371708
 10
452.7269133592
 20
244.2062663799
 10
456.7127495446
 20
244.9919575707
 10
460.758402458
 20
245.6060438412
 10
464.8491099508
 20
246.0462844572
 10
468.9699454749
 20
246.3110730284
 10
473.1058725483
 20
246.3994433701
 10
477.2417996217
 20
246.3110730284
 10
481.3626351458
 20
246.0462844572
 10
485.4533426386
 20
245.6060438412
 10
489.498995552
 20
244.9919575707
 10
493.4848317374
 20
244.2062663799
 10
497.3963073107
 20
243.2518371708
 10
501.2191497218
 20
242.132152552
 10
504.9394098333
 20
240.8512981313
 10
508.5435128195
 20
239.4139476075
 10
512.0183076994
 20
237.8253457169
 10
515.3511153234
 20
236.0912890954
 10
518.5297746378
 20
234.2181051277
 10
521.5426870596
 20
232.2126288588
 10
524.378858798
 20
230.0821780542
 10
527.02794097
 20
227.8345264979
 10
529.480267362
 20
225.4778756266
 10
531.726889701
 20
223.0208246038
 10
533.7596103055
 20
220.4723389422
 10
535.5710119988
 20
217.8417177896
 10
537.1544851723
 20
215.1385599973
 10
538.5042519041
 20
212.3727290949
 10
539.615387042
 20
209.5543172995
 10
540.4838361742
 20
206.6936086901
 10
541.106430424
 20
203.8010416821
 10
541.4808980126
 20
200.8871709389
 10
541.6058725483
 20
197.9626288588
  0
SPLINE
  5
E5
330
1F
100
AcDbEntity
  8
0
  6
Continuous
 62
     7
370
    25
100
AcDbSpline
210
0.0
220
0.0
230
1.0
 70
     8
 71
     3
 72
    10
 73
     6
 74
     0
 42
0.00000001
 43
0.00000001
 40
0.0
 40
0.0
 40
0.0
 40
0.0
 40
0.4292190064847142
 40
0.8584923232847478
 40
1.0
 40
1.0
 40
1.0
 40
1.0
 10
541.4268063826684
 20
190.8915610469324
 30
0.0
 10
541.4659571942408
 20
190.1128639350731
 30
0.0
 10
541.5442637712501
 20
188.5553711805694
 30
0.0
 10
541.609387624275
 20
186.8368359597995
 30
0.0
 10
541.5994807294022
 20
186.1691802657225
 30
0.0
 10
541.5970246180515
 20
186.0036554721713
 30
0.0
  0
SPLINE
  5
E6
330
1F
100
AcDbEntity
  8
0
  6
Continuous
 62
     7
370
    25
100
AcDbSpline
210
0.0
220
0.0
230
1.0
 70
     8
 71
     3
 72
    13
 73
     9
 74
     0
 42
0.00000001
 43
0.00000001
 40
0.0
 40
0.0
 40
0.0
 40
0.0
 40
0.0006220811327383
 40
0.2155159287374933
 40
0.4304422091830451
 40
0.644395859639057
 40
0.8578934707444474
 40
1.0
 40
1.0
 40
1.0
 40
1.0
 10
541.4267772608401
 20
197.8904261379927
 30
0.0
 10
541.4266690940265
 20
197.8908043114041
 30
0.0
 10
541.3891954108229
 20
198.0218200096636
 30
0.0
 10
541.3041909606577
 20
197.5606066995055
 30
0.0
 10
541.2381197869262
 20
196.4734433040608
 30
0.0
 10
541.2527604481253
 20
194.6660009572964
 30
0.0
 10
541.3336194118336
 20
192.7100878244528
 30
0.0
 10
541.4001996052663
 20
191.4107874659899
 30
0.0
 10
541.4268063826684
 20
190.8915610469324
 30
0.0
  0
LINE
  5
E7
330
1F
100
AcDbEntity
  8
0
  6
Continuous
 62
     7
370
    25
100
AcDbLine
 10
557.6058725483
 20
-5.0373711412
 30
0.0
 11
557.6058725483
 21
1.9626288588
 31
0.0
  0
LINE
  5
E8
330
1F
100
AcDbEntity
  8
0
  6
Continuous
 62
     7
370
    25
100
AcDbLine
 10
557.6058725483
 20
-12.0373711412
 30
0.0
 11
557.6058725483
 21
-5.0373711412
 31
0.0
  0
LINE
  5
E9
330
1F
100
AcDbEntity
  8
0
  6
Continuous
 62
     7
370
    25
100
AcDbLine
 10
557.6058725483
 20
190.8915610469
 30
0.0
 11
557.6058725483
 21
197.8915610469
 31
0.0
  0
LINE
  5
EA
330
1F
100
AcDbEntity
  8
0
  6
Continuous
 62
     7
370
    25
100
AcDbLine
 10
557.6058725483
 20
183.8915610469
 30
0.0
 11
557.6058725483
 21
190.8915610469
 31
0.0
  0
LINE
  5
EB
330
1F
100
AcDbEntity
  8
0
  6
Continuous
 62
     1
370
    25
100
AcDbLine
 10
404.6058725483
 20
80.7401907072
 30
0.0
 11
541.6058725483
 21
80.7401907072
 31
0.0
  0
LWPOLYLINE
  5
EC
330
1F
100
AcDbEntity
  8
0
  6
Continuous
 62
     1
370
    25
100
AcDbPolyline
 90
       54
 70
   128
 43
0.0
 10
404.6058725483
 20
130.2376653903
 10
404.730847084
 20
133.1622074704
 10
405.1053146726
 20
136.0760782136
 10
405.7279089224
 20
138.9686452216
 10
406.5963580546
 20
141.829353831
 10
407.7074931925
 20
144.6477656264
 10
409.0572599244
 20
147.4135965287
 10
410.6407330978
 20
150.116754321
 10
412.4521347911
 20
152.7473754736
 10
414.4848553957
 20
155.2958611353
 10
416.7314777346
 20
157.7529121581
 10
419.1838041266
 20
160.1095630294
 10
421.8328862986
 20
162.3572145857
 10
424.669058037
 20
164.4876653903
 10
427.6819704588
 20
166.4931416591
 10
430.8606297732
 20
168.3663256269
 10
434.1934373972
 20
170.1003822483
 10
437.6682322771
 20
171.688984139
 10
441.2723352633
 20
173.1263346627
 10
444.9925953748
 20
174.4071890835
 10
448.8154377859
 20
175.5268737023
 10
452.7269133592
 20
176.4813029114
 10
456.7127495446
 20
177.2669941022
 10
460.758402458
 20
177.8810803727
 10
464.8491099508
 20
178.3213209887
 10
468.9699454749
 20
178.5861095599
 10
473.1058725483
 20
178.6744799015
 10
477.2417996217
 20
178.5861095599
 10
481.3626351458
 20
178.3213209887
 10
485.4533426386
 20
177.8810803727
 10
489.498995552
 20
177.2669941022
 10
493.4848317374
 20
176.4813029114
 10
497.3963073107
 20
175.5268737023
 10
501.2191497218
 20
174.4071890835
 10
504.9394098333
 20
173.1263346627
 10
508.5435128195
 20
171.688984139
 10
512.0183076994
 20
170.1003822483
 10
515.3511153234
 20
168.3663256269
 10
518.5297746378
 20
166.4931416591
 10
521.5426870596
 20
164.4876653903
 10
524.378858798
 20
162.3572145857
 10
527.02794097
 20
160.1095630294
 10
529.480267362
 20
157.7529121581
 10
531.726889701
 20
155.2958611353
 10
533.7596103055
 20
152.7473754736
 10
535.5710119988
 20
150.116754321
 10
537.1544851723
 20
147.4135965287
 10
538.5042519041
 20
144.6477656264
 10
539.615387042
 20
141.829353831
 10
540.4838361742
 20
138.9686452216
 10
541.106430424
 20
136.0760782136
 10
541.4808980126
 20
133.1622074704
 10
541.6058725483
 20
130.2376653903
 10
541.6058725483
 20
130.2376653903
  0
INSERT
  5
F8
330
1F
100
AcDbEntity
  8
FORMAT
 62
     7
100
AcDbBlockReference
  2
SW_CENTERMARKSYMBOL_2
 10
473.1058725483
 20
119.9626288588
 30
0.0
  0
LINE
  5
F9
330
1F
100
AcDbEntity
  8
0
  6
Continuous
 62
     7
370
    25
100
AcDbLine
 10
203.1016692345
 20
-93.4494779136
 30
0.0
 11
135.3767057659
 21
-93.4494779136
 31
0.0
  0
LINE
  5
FA
330
1F
100
AcDbEntity
  8
0
  6
Continuous
 62
     7
370
    25
100
AcDbLine
 10
200.9172998441
 20
-230.4494779136
 30
0.0
 11
203.1016692345
 21
-230.4494779136
 31
0.0
  0
LINE
  5
FB
330
1F
100
AcDbEntity
  8
0
  6
Continuous
 62
     7
370
    25
100
AcDbLine
 10
135.3767057659
 20
-230.4494779136
 30
0.0
 11
189.0306014226
 21
-230.4494779136
 31
0.0
  0
LINE
  5
FC
330
1F
100
AcDbEntity
  8
0
  6
Continuous
 62
     7
370
    25
100
AcDbLine
 10
189.0306014226
 20
-230.270411748
 30
0.0
 11
189.0306014226
 21
-246.4494779136
 31
0.0
  0
LINE
  5
FD
330
1F
100
AcDbEntity
  8
0
  6
Continuous
 62
     7
370
    25
100
AcDbLine
 10
203.0306014226
 20
-246.4494779136
 30
0.0
 11
203.0306014226
 21
-230.4494779136
 31
0.0
  0
LINE
  5
FE
330
1F
100
AcDbEntity
  8
0
  6
Continuous
 62
     7
370
    25
100
AcDbLine
 10
114.874180449
 20
-230.4494779136
 30
0.0
 11
135.3767057659
 21
-230.4494779136
 31
0.0
  0
LINE
  5
FF
330
1F
100
AcDbEntity
  8
0
  6
Continuous
 62
     7
370
    25
100
AcDbLine
 10
135.3767057659
 20
-93.4494779136
 30
0.0
 11
114.874180449
 21
-93.4494779136
 31
0.0
  0
LINE
  5
100
330
1F
100
AcDbEntity
  8
0
  6
Continuous
 62
     7
370
    25
100
AcDbLine
 10
107.874180449
 20
-230.0908750229
 30
0.0
 11
107.874180449
 21
-246.4494779136
 31
0.0
  0
LINE
  5
101
330
1F
100
AcDbEntity
  8
0
  6
Continuous
 62
     7
370
    25
100
AcDbLine
 10
121.874180449
 20
-246.4494779136
 30
0.0
 11
121.874180449
 21
-230.4494779136
 31
0.0
  0
LWPOLYLINE
  5
102
330
1F
100
AcDbEntity
  8
0
  6
Continuous
 62
     7
370
    25
100
AcDbPolyline
 90
      105
 70
   128
 43
0.0
 10
203.1016692345
 20
-230.4494779136
 10
206.0262113146
 20
-230.3245033779
 10
208.9400820578
 20
-229.9500357893
 10
211.8326490658
 20
-229.3274415395
 10
214.6933576752
 20
-228.4589924073
 10
217.5117694706
 20
-227.3478572694
 10
220.2776003729
 20
-225.9980905376
 10
222.9807581652
 20
-224.4146173641
 10
225.6113793178
 20
-222.6032156709
 10
228.1598649795
 20
-220.5704950663
 10
230.6169160023
 20
-218.3238727273
 10
232.9735668736
 20
-215.8715463353
 10
235.2212184299
 20
-213.2224641633
 10
237.3516692345
 20
-210.3862924249
 10
239.3571455033
 20
-207.3733800031
 10
241.2303294711
 20
-204.1947206887
 10
242.9643860925
 20
-200.8619130647
 10
244.5529879832
 20
-197.3871181848
 10
245.9903385069
 20
-193.7830151986
 10
247.2711929276
 20
-190.0627550871
 10
248.3908775464
 20
-186.239912676
 10
249.3453067556
 20
-182.3284371027
 10
250.1309979464
 20
-178.3426009173
 10
250.7450842169
 20
-174.2969480039
 10
251.1853248329
 20
-170.2062405111
 10
251.4501134041
 20
-166.085404987
 10
251.5384837457
 20
-161.9494779136
 10
251.4501134041
 20
-157.8135508402
 10
251.1853248329
 20
-153.6927153161
 10
250.7450842169
 20
-149.6020078234
 10
250.1309979464
 20
-145.5563549099
 10
249.3453067556
 20
-141.5705187245
 10
248.3908775464
 20
-137.6590431512
 10
247.2711929276
 20
-133.8362007401
 10
245.9903385069
 20
-130.1159406286
 10
244.5529879832
 20
-126.5118376424
 10
242.9643860925
 20
-123.0370427625
 10
241.2303294711
 20
-119.7042351386
 10
239.3571455033
 20
-116.5255758241
 10
237.3516692345
 20
-113.5126634023
 10
235.2212184299
 20
-110.6764916639
 10
232.9735668736
 20
-108.0274094919
 10
230.6169160023
 20
-105.5750830999
 10
228.1598649795
 20
-103.328460761
 10
225.6113793178
 20
-101.2957401564
 10
222.9807581652
 20
-99.4843384632
 10
220.2776003729
 20
-97.9008652897
 10
217.5117694706
 20
-96.5510985578
 10
214.6933576752
 20
-95.4399634199
 10
211.8326490658
 20
-94.5715142877
 10
208.9400820578
 20
-93.9489200379
 10
206.0262113146
 20
-93.5744524493
 10
203.1016692345
 20
-93.4494779136
 10
200.1771271543
 20
-93.5744524493
 10
197.2632564111
 20
-93.9489200379
 10
194.3706894031
 20
-94.5715142877
 10
191.5099807937
 20
-95.4399634199
 10
188.6915689983
 20
-96.5510985578
 10
185.925738096
 20
-97.9008652897
 10
183.2225803037
 20
-99.4843384632
 10
180.5919591511
 20
-101.2957401564
 10
178.0434734895
 20
-103.328460761
 10
175.5864224666
 20
-105.5750830999
 10
173.2297715953
 20
-108.0274094919
 10
170.982120039
 20
-110.6764916639
 10
168.8516692345
 20
-113.5126634023
 10
166.8461929656
 20
-116.5255758241
 10
164.9730089979
 20
-119.7042351386
 10
163.2389523764
 20
-123.0370427625
 10
161.6503504858
 20
-126.5118376424
 10
160.212999962
 20
-130.1159406286
 10
158.9321455413
 20
-133.8362007401
 10
157.8124609225
 20
-137.6590431512
 10
156.8580317133
 20
-141.5705187245
 10
156.0723405226
 20
-145.5563549099
 10
155.4582542521
 20
-149.6020078234
 10
155.0180136361
 20
-153.6927153161
 10
154.7532250649
 20
-157.8135508402
 10
154.6648547232
 20
-161.9494779136
 10
154.7532250649
 20
-166.085404987
 10
155.0180136361
 20
-170.2062405111
 10
155.4582542521
 20
-174.2969480039
 10
156.0723405226
 20
-178.3426009173
 10
156.8580317133
 20
-182.3284371027
 10
157.8124609225
 20
-186.239912676
 10
158.9321455413
 20
-190.0627550871
 10
160.212999962
 20
-193.7830151986
 10
161.6503504858
 20
-197.3871181848
 10
163.2389523764
 20
-200.8619130647
 10
164.9730089979
 20
-204.1947206887
 10
166.8461929656
 20
-207.3733800031
 10
168.8516692345
 20
-210.3862924249
 10
170.982120039
 20
-213.2224641633
 10
173.2297715953
 20
-215.8715463353
 10
175.5864224666
 20
-218.3238727273
 10
178.0434734895
 20
-220.5704950663
 10
180.5919591511
 20
-222.6032156709
 10
183.2225803037
 20
-224.4146173641
 10
185.925738096
 20
-225.9980905376
 10
188.6915689983
 20
-227.3478572694
 10
191.5099807937
 20
-228.4589924073
 10
194.3706894031
 20
-229.3274415395
 10
197.2632564111
 20
-229.9500357893
 10
200.1771271544
 20
-230.3245033779
 10
203.1016692345
 20
-230.4494779136
  0
LWPOLYLINE
  5
103
330
1F
100
AcDbEntity
  8
0
  6
Continuous
 62
     7
370
    25
100
AcDbPolyline
 90
       94
 70
   128
 43
0.0
 10
203.1016692345
 20
-216.9494779136
 10
200.4761562455
 20
-216.824001721
 10
197.8626228701
 20
-216.4481456623
 10
195.2729940616
 20
-215.8236246825
 10
192.7190857024
 20
-214.9532883276
 10
190.2125506904
 20
-213.8411077427
 10
187.7648257701
 20
-212.4921575527
 10
185.3870793489
 20
-210.9125927081
 10
183.0901605384
 20
-209.1096204008
 10
180.8845496521
 20
-207.09146718
 10
178.7803103868
 20
-204.867341416
 10
176.7870439036
 20
-202.4473912844
 10
174.9138450202
 20
-199.8426584628
 10
173.1692607135
 20
-197.0650277495
 10
171.5612511217
 20
-194.1271728364
 10
170.0971532235
 20
-191.0424984816
 10
168.783647362
 20
-187.8250793468
 10
167.6267267632
 20
-184.4895957774
 10
166.6316701902
 20
-181.0512668201
 10
165.8030178582
 20
-177.5257807811
 10
165.1445507175
 20
-173.9292236448
 10
164.6592732028
 20
-170.2780056764
 10
164.3493995241
 20
-166.588786546
 10
164.2163435638
 20
-162.8783993144
 10
164.2607124258
 20
-159.1637736275
 10
164.4823036651
 20
-155.4618584703
 10
164.8801062118
 20
-151.7895448327
 10
165.4523049841
 20
-148.1635886394
 10
166.1962891701
 20
-144.6005342969
 10
167.1086641408
 20
-141.116639205
 10
168.1852669384
 20
-137.7277995779
 10
169.4211852712
 20
-134.4494779136
 10
170.8107799274
 20
-131.2966324419
 10
172.3477105052
 20
-128.2836488735
 10
174.024964343
 20
-125.4242747614
 10
175.8348885162
 20
-122.7315567739
 10
177.7692247558
 20
-120.2177811655
 10
179.8191471294
 20
-117.8944177178
 10
181.9753023113
 20
-115.7720674053
 10
184.2278522599
 20
-113.8604140257
 10
186.5665191064
 20
-112.1681800148
 10
188.9806320505
 20
-110.7030866485
 10
191.4591760484
 20
-109.4718188116
 10
193.9908420724
 20
-108.4799944969
 10
196.5640787111
 20
-107.7321391713
 10
199.1671448759
 20
-107.2316651271
 10
201.788163373
 20
-106.9808559125
 10
204.415175096
 20
-106.9808559125
 10
207.036193593
 20
-107.2316651271
 10
209.6392597578
 20
-107.7321391713
 10
212.2124963965
 20
-108.4799944969
 10
214.7441624205
 20
-109.4718188116
 10
217.2227064184
 20
-110.7030866485
 10
219.6368193625
 20
-112.1681800148
 10
221.9754862091
 20
-113.8604140257
 10
224.2280361576
 20
-115.7720674053
 10
226.3841913395
 20
-117.8944177178
 10
228.4341137131
 20
-120.2177811655
 10
230.3684499528
 20
-122.7315567739
 10
232.1783741259
 20
-125.4242747614
 10
233.8556279637
 20
-128.2836488735
 10
235.3925585416
 20
-131.2966324419
 10
236.7821531977
 20
-134.4494779136
 10
238.0180715305
 20
-137.7277995779
 10
239.0946743281
 20
-141.116639205
 10
240.0070492988
 20
-144.6005342969
 10
240.7510334849
 20
-148.1635886394
 10
241.3232322571
 20
-151.7895448327
 10
241.7210348038
 20
-155.4618584703
 10
241.9426260432
 20
-159.1637736275
 10
241.9869949052
 20
-162.8783993144
 10
241.8539389449
 20
-166.588786546
 10
241.5440652661
 20
-170.2780056764
 10
241.0587877514
 20
-173.9292236448
 10
240.4003206107
 20
-177.5257807811
 10
239.5716682787
 20
-181.0512668201
 10
238.5766117058
 20
-184.4895957774
 10
237.4196911069
 20
-187.8250793468
 10
236.1061852454
 20
-191.0424984816
 10
234.6420873473
 20
-194.1271728364
 10
233.0340777554
 20
-197.0650277495
 10
231.2894934487
 20
-199.8426584628
 10
229.4162945653
 20
-202.4473912844
 10
227.4230280821
 20
-204.867341416
 10
225.3187888168
 20
-207.09146718
 10
223.1131779306
 20
-209.1096204008
 10
220.81625912
 20
-210.9125927081
 10
218.4385126988
 20
-212.4921575527
 10
215.9907877785
 20
-213.8411077427
 10
213.4842527666
 20
-214.9532883276
 10
210.9303444073
 20
-215.8236246825
 10
208.3407155989
 20
-216.4481456623
 10
205.7271822234
 20
-216.824001721
 10
203.1016692345
 20
-216.9494779136
  0
SPLINE
  5
104
330
1F
100
AcDbEntity
  8
0
  6
Continuous
 62
     7
370
    25
100
AcDbSpline
210
0.0
220
0.0
230
1.0
 70
     8
 71
     3
 72
    15
 73
    11
 74
     0
 42
0.00000001
 43
0.00000001
 40
0.0
 40
0.0
 40
0.0
 40
0.0
 40
0.0488665186676493
 40
0.1911991767893103
 40
0.3338015499169762
 40
0.47705261190655
 40
0.6203252940538866
 40
0.7629496082722317
 40
0.905269920668218
 40
1.0
 40
1.0
 40
1.0
 40
1.0
 10
200.9172653366725
 20
-230.4404494080659
 30
0.0
 10
200.7452492031117
 20
-230.4429247947599
 30
0.0
 10
200.0722046722539
 20
-230.452610197179
 30
0.0
 10
198.349209369759
 20
-230.386882967182
 30
0.0
 10
196.0265058189892
 20
-230.2708059355428
 30
0.0
 10
193.6605384317174
 20
-230.148902108309
 30
0.0
 10
191.5664824870343
 20
-230.0814301260778
 30
0.0
 10
189.9879419220201
 20
-230.0964452132977
 30
0.0
 10
189.150745775211
 20
-230.1772124603444
 30
0.0
 10
189.064905081333
 20
-230.2438014538781
 30
0.0
 10
189.0306014225974
 20
-230.2704117479767
 30
0.0
  0
LINE
  5
105
330
1F
100
AcDbEntity
  8
0
  6
Continuous
 62
     7
370
    25
100
AcDbLine
 10
189.0306014226
 20
-246.4494779136
 30
0.0
 11
203.0306014226
 21
-246.4494779136
 31
0.0
  0
ARC
  5
106
330
1F
100
AcDbEntity
  8
0
  6
Continuous
 62
     7
370
    25
100
AcDbCircle
 10
114.874180449
 20
-161.9494779136
 30
0.0
 40
68.50000000000003
100
AcDbArc
 50
90.0
 51
270.0
  0
ARC
  5
107
330
1F
100
AcDbEntity
  8
0
  6
Continuous
 62
     7
370
    25
100
AcDbCircle
 10
114.874180449
 20
-161.9494779136
 30
0.0
 40
55.00000000000001
100
AcDbArc
 50
339.9980879443
 51
20.0019120557
  0
LINE
  5
108
330
1F
100
AcDbEntity
  8
0
  6
Continuous
 62
     7
370
    25
100
AcDbLine
 10
107.874180449
 20
-246.4494779136
 30
0.0
 11
121.874180449
 21
-246.4494779136
 31
0.0
  0
LWPOLYLINE
  5
109
330
1F
100
AcDbEntity
  8
0
  6
Continuous
 62
     1
370
    25
100
AcDbPolyline
 90
       53
 70
   128
 43
0.0
 10
135.3767057659
 20
-93.4494779136
 10
132.4521636858
 20
-93.5744524493
 10
129.5382929426
 20
-93.9489200379
 10
126.6457259346
 20
-94.5715142877
 10
123.7850173252
 20
-95.4399634199
 10
120.9666055298
 20
-96.5510985578
 10
118.2007746275
 20
-97.9008652897
 10
115.4976168352
 20
-99.4843384632
 10
112.8669956826
 20
-101.2957401564
 10
110.3185100209
 20
-103.328460761
 10
107.8614589981
 20
-105.5750830999
 10
105.5048081268
 20
-108.0274094919
 10
103.2571565705
 20
-110.6764916639
 10
101.1267057659
 20
-113.5126634023
 10
99.1212294971
 20
-116.5255758241
 10
97.2480455293
 20
-119.7042351386
 10
95.5139889079
 20
-123.0370427625
 10
93.9253870172
 20
-126.5118376424
 10
92.4880364935
 20
-130.1159406286
 10
91.2071820728
 20
-133.8362007401
 10
90.0874974539
 20
-137.6590431512
 10
89.1330682448
 20
-141.5705187245
 10
88.347377054
 20
-145.5563549099
 10
87.7332907835
 20
-149.6020078234
 10
87.2930501675
 20
-153.6927153161
 10
87.0282615963
 20
-157.8135508402
 10
86.9398912547
 20
-161.9494779136
 10
87.0282615963
 20
-166.085404987
 10
87.2930501675
 20
-170.2062405111
 10
87.7332907835
 20
-174.2969480039
 10
88.347377054
 20
-178.3426009173
 10
89.1330682448
 20
-182.3284371027
 10
90.0874974539
 20
-186.239912676
 10
91.2071820728
 20
-190.0627550871
 10
92.4880364935
 20
-193.7830151986
 10
93.9253870172
 20
-197.3871181848
 10
95.5139889079
 20
-200.8619130647
 10
97.2480455293
 20
-204.1947206887
 10
99.1212294971
 20
-207.3733800031
 10
101.1267057659
 20
-210.3862924249
 10
103.2571565705
 20
-213.2224641633
 10
105.5048081268
 20
-215.8715463353
 10
107.8614589981
 20
-218.3238727273
 10
110.3185100209
 20
-220.5704950663
 10
112.8669956826
 20
-222.6032156709
 10
115.4976168352
 20
-224.4146173641
 10
118.2007746275
 20
-225.9980905376
 10
120.9666055298
 20
-227.3478572694
 10
123.7850173252
 20
-228.4589924073
 10
126.6457259346
 20
-229.3274415395
 10
129.5382929426
 20
-229.9500357893
 10
132.4521636858
 20
-230.3245033779
 10
135.3767057659
 20
-230.4494779136
  0
ARC
  5
10A
330
1F
100
AcDbEntity
  8
0
  6
Continuous
 62
     1
370
    25
100
AcDbCircle
 10
99.4732413492
 20
-161.9494779136
 30
0.0
 40
74.82614452136083
100
AcDbArc
 50
338.8079432222
 51
21.1920567778
  0
INSERT
  5
116
330
1F
100
AcDbEntity
  8
FORMAT
 62
     7
100
AcDbBlockReference
  2
SW_CENTERMARKSYMBOL_3
 10
114.874180449
 20
-161.9494779136
 30
0.0
  0
LINE
  5
117
330
1F
100
AcDbEntity
  8
0
  6
Continuous
 62
     7
370
    25
100
AcDbLine
 10
350.5428734433
 20
-214.4711928562
 30
0.0
 11
350.5428734433
 21
-292.6774809683
 31
0.0
  0
LINE
  5
118
330
1F
100
AcDbEntity
  8
0
  6
Continuous
 62
     7
370
    25
100
AcDbLine
 10
487.5428734433
 20
-292.6774809683
 30
0.0
 11
487.5428734433
 21
-214.4711928562
 31
0.0
  0
LINE
  5
119
330
1F
100
AcDbEntity
  8
0
  6
Continuous
 62
     7
370
    25
100
AcDbLine
 10
422.1063889349
 20
-48.4894691962
 30
0.0
 11
420.6047819238
 21
-51.0903288248
 31
0.0
  0
LINE
  5
11A
330
1F
100
AcDbEntity
  8
0
  6
Continuous
 62
     7
370
    25
100
AcDbLine
 10
413.6047819007
 20
-63.2146844822
 30
0.0
 11
374.2176080107
 21
-131.435270626
 31
0.0
  0
LINE
  5
11B
330
1F
100
AcDbEntity
  8
0
  6
Continuous
 62
     7
370
    25
100
AcDbLine
 10
492.8630882421
 20
-199.9352707768
 30
0.0
 11
540.7518691663
 21
-116.989469347
 31
0.0
  0
LINE
  5
11C
330
1F
100
AcDbEntity
  8
0
  6
Continuous
 62
     7
370
    25
100
AcDbLine
 10
374.2318630228
 20
-250.5605423399
 30
0.0
 11
362.7920659973
 21
-243.9564880883
 31
0.0
  0
LINE
  5
11D
330
1F
100
AcDbEntity
  8
0
  6
Continuous
 62
     7
370
    25
100
AcDbLine
 10
355.7926348688
 20
-256.0811721616
 30
0.0
 11
367.2334850506
 21
-262.6858343874
 31
0.0
  0
SPLINE
  5
11E
330
1F
100
AcDbEntity
  8
0
  6
Continuous
 62
     7
370
    25
100
AcDbSpline
210
0.0
220
0.0
230
1.0
 70
     8
 71
     3
 72
    22
 73
    18
 74
     0
 42
0.00000001
 43
0.00000001
 40
0.0
 40
0.0
 40
0.0
 40
0.0
 40
0.0076979530715021
 40
0.086956401650621
 40
0.163283739472073
 40
0.2377699335772056
 40
0.3110109078838109
 40
0.3835340200455041
 40
0.4557836553479979
 40
0.5281145178280151
 40
0.6007491991522149
 40
0.6738318759272606
 40
0.747471706132411
 40
0.8216964411809121
 40
0.8964645534894397
 40
0.971680007889743
 40
1.0
 40
1.0
 40
1.0
 40
1.0
 10
487.5427308386106
 20
-214.4929975643294
 30
0.0
 10
487.5427176256225
 20
-214.4945852113594
 30
0.0
 10
487.5425683711536
 20
-214.5125193389837
 30
0.0
 10
487.5452739574474
 20
-214.400650713288
 30
0.0
 10
487.5724581608237
 20
-214.0754985483279
 30
0.0
 10
487.6387742610688
 20
-213.5413498764427
 30
0.0
 10
487.7578260672812
 20
-212.8233378525067
 30
0.0
 10
487.9417328166955
 20
-211.9294501549304
 30
0.0
 10
488.2008653881293
 20
-210.873983556034
 30
0.0
 10
488.5436521125785
 20
-209.6720691129231
 30
0.0
 10
488.9762095476629
 20
-208.3417029587186
 30
0.0
 10
489.5020435702977
 20
-206.9031539515007
 30
0.0
 10
490.1219796500343
 20
-205.3787141043742
 30
0.0
 10
490.8336884438086
 20
-203.7921779800785
 30
0.0
 10
491.6324347082657
 20
-202.1698144172426
 30
0.0
 10
492.3239016781673
 20
-200.8780394232745
 30
0.0
 10
492.7472814206562
 20
-200.1377592058601
 30
0.0
 10
492.8630882420977
 20
-199.9352707767942
 30
0.0
  0
SPLINE
  5
11F
330
1F
100
AcDbEntity
  8
0
  6
Continuous
 62
     7
370
    25
100
AcDbSpline
210
0.0
220
0.0
230
1.0
 70
     8
 71
     3
 72
    23
 73
    19
 74
     0
 42
0.00000001
 43
0.00000001
 40
0.0
 40
0.0
 40
0.0
 40
0.0
 40
0.036602524438609
 40
0.0996771588576248
 40
0.1628278976340192
 40
0.2260941440557502
 40
0.2895176839780625
 40
0.3531377436475577
 40
0.4169893107086213
 40
0.481101066064811
 40
0.5454928481951248
 40
0.6101726333972896
 40
0.6751331278367222
 40
0.7403482452688854
 40
0.8057699841537509
 40
0.8713248639164748
 40
0.9368822843928419
 40
1.0
 40
1.0
 40
1.0
 40
1.0
 10
374.2176080106823
 20
-131.4352706260145
 30
0.0
 10
373.6774646037048
 20
-132.3820944789619
 30
0.0
 10
372.2065288961555
 20
-134.96051531326
 30
0.0
 10
369.9236103795471
 20
-139.2380417218704
 30
0.0
 10
367.4114395669192
 20
-144.2828789476312
 30
0.0
 10
365.0539221872886
 20
-149.4021430380712
 30
0.0
 10
362.8522378210782
 20
-154.5901703953943
 30
0.0
 10
360.8113123380879
 20
-159.8433792583315
 30
0.0
 10
358.935673229611
 20
-165.1574989237951
 30
0.0
 10
357.2306253447805
 20
-170.528071277321
 30
0.0
 10
355.7019464115809
 20
-175.9500461066724
 30
0.0
 10
354.3559949529125
 20
-181.4175599114711
 30
0.0
 10
353.1994546266936
 20
-186.9236360153324
 30
0.0
 10
352.2398266874379
 20
-192.4598180040817
 30
0.0
 10
351.4828821844652
 20
-198.0160569091573
 30
0.0
 10
350.9411799741184
 20
-203.5787779798094
 30
0.0
 10
350.604743357994
 20
-209.0691161703759
 30
0.0
 10
350.56323440905
 20
-212.693406369698
 30
0.0
 10
350.5428734433317
 20
-214.4711928562041
 30
0.0
  0
LINE
  5
120
330
1F
100
AcDbEntity
  8
0
  6
Continuous
 62
     7
370
    25
100
AcDbLine
 10
431.4983939837
 20
-57.3790772072
 30
0.0
 11
420.1783216046
 21
-50.8441385228
 31
0.0
  0
LINE
  5
121
330
1F
100
AcDbEntity
  8
0
  6
Continuous
 62
     7
370
    25
100
AcDbLine
 10
413.1788904761
 20
-62.9688225962
 30
0.0
 11
424.4988374644
 21
-69.5036888939
 31
0.0
  0
LWPOLYLINE
  5
122
330
1F
100
AcDbEntity
  8
0
  6
Continuous
 62
     7
370
    25
100
AcDbPolyline
 90
      105
 70
   128
 43
0.0
 10
370.6060589321
 20
-264.7155031384
 10
373.6189713538
 20
-263.0782160445
 10
376.7976306683
 20
-261.5489334583
 10
380.1304382922
 20
-260.1332355661
 10
383.6052331722
 20
-258.8362880962
 10
387.2093361583
 20
-257.662823469
 10
390.9295962698
 20
-256.6171235299
 10
394.7524386809
 20
-255.7030039244
 10
398.6639142543
 20
-254.9238001759
 10
402.6497504396
 20
-254.2823555144
 10
406.6954033531
 20
-253.7810105018
 10
410.7861108458
 20
-253.4215944917
 10
414.9069463699
 20
-253.2054189543
 10
419.0428734433
 20
-253.1332726905
 10
423.1788005168
 20
-253.2054189543
 10
427.2996360408
 20
-253.4215944917
 10
431.3903435336
 20
-253.7810105018
 10
435.435996447
 20
-254.2823555144
 10
439.4218326324
 20
-254.9238001759
 10
443.3333082057
 20
-255.7030039244
 10
447.1561506168
 20
-256.6171235299
 10
450.8764107283
 20
-257.662823469
 10
454.4805137145
 20
-258.8362880962
 10
457.9553085944
 20
-260.1332355661
 10
461.2881162184
 20
-261.5489334583
 10
464.4667755328
 20
-263.0782160445
 10
467.4796879546
 20
-264.7155031384
 10
470.3158596931
 20
-266.4548204571
 10
472.9649418651
 20
-268.2898214202
 10
475.417268257
 20
-270.2138103083
 10
477.663890596
 20
-272.2197666945
 10
479.6966112006
 20
-274.3003710615
 10
481.5080128938
 20
-276.4480315096
 10
483.0914860673
 20
-278.6549114588
 10
484.4412527992
 20
-280.9129582434
 10
485.552387937
 20
-283.2139324956
 10
486.4208370692
 20
-285.5494382099
 10
487.043431319
 20
-287.9109533792
 10
487.4178989076
 20
-290.2898610908
 10
487.5428734433
 20
-292.6774809683
 10
487.4178989076
 20
-295.0651008459
 10
487.043431319
 20
-297.4440085575
 10
486.4208370692
 20
-299.8055237268
 10
485.552387937
 20
-302.1410294411
 10
484.4412527992
 20
-304.4420036933
 10
483.0914860673
 20
-306.7000504779
 10
481.5080128938
 20
-308.9069304271
 10
479.6966112006
 20
-311.0545908752
 10
477.663890596
 20
-313.1351952422
 10
475.417268257
 20
-315.1411516284
 10
472.9649418651
 20
-317.0651405165
 10
470.3158596931
 20
-318.9001414796
 10
467.4796879546
 20
-320.6394587983
 10
464.4667755328
 20
-322.2767458922
 10
461.2881162184
 20
-323.8060284784
 10
457.9553085944
 20
-325.2217263706
 10
454.4805137145
 20
-326.5186738405
 10
450.8764107283
 20
-327.6921384677
 10
447.1561506168
 20
-328.7378384068
 10
443.3333082057
 20
-329.6519580123
 10
439.4218326324
 20
-330.4311617608
 10
435.435996447
 20
-331.0726064223
 10
431.3903435336
 20
-331.5739514349
 10
427.2996360408
 20
-331.933367445
 10
423.1788005168
 20
-332.1495429824
 10
419.0428734433
 20
-332.2216892462
 10
414.9069463699
 20
-332.1495429824
 10
410.7861108458
 20
-331.933367445
 10
406.6954033531
 20
-331.5739514349
 10
402.6497504396
 20
-331.0726064223
 10
398.6639142542
 20
-330.4311617608
 10
394.7524386809
 20
-329.6519580123
 10
390.9295962698
 20
-328.7378384068
 10
387.2093361583
 20
-327.6921384677
 10
383.6052331722
 20
-326.5186738405
 10
380.1304382922
 20
-325.2217263706
 10
376.7976306683
 20
-323.8060284784
 10
373.6189713538
 20
-322.2767458922
 10
370.6060589321
 20
-320.6394587983
 10
367.7698871936
 20
-318.9001414796
 10
365.1208050216
 20
-317.0651405165
 10
362.6684786296
 20
-315.1411516284
 10
360.4218562907
 20
-313.1351952422
 10
358.3891356861
 20
-311.0545908752
 10
356.5777339929
 20
-308.9069304271
 10
354.9942608194
 20
-306.7000504779
 10
353.6444940875
 20
-304.4420036933
 10
352.5333589496
 20
-302.1410294411
 10
351.6649098175
 20
-299.8055237268
 10
351.0423155676
 20
-297.4440085575
 10
350.667847979
 20
-295.0651008459
 10
350.5428734433
 20
-292.6774809683
 10
350.667847979
 20
-290.2898610908
 10
351.0423155676
 20
-287.9109533792
 10
351.6649098175
 20
-285.5494382099
 10
352.5333589496
 20
-283.2139324956
 10
353.6444940875
 20
-280.9129582434
 10
354.9942608194
 20
-278.6549114588
 10
356.5777339929
 20
-276.4480315096
 10
358.3891356861
 20
-274.3003710615
 10
360.4218562907
 20
-272.2197666945
 10
362.6684786296
 20
-270.2138103083
 10
365.1208050216
 20
-268.2898214202
 10
367.7698871936
 20
-266.4548204571
 10
370.6060589321
 20
-264.7155031384
  0
SPLINE
  5
123
330
1F
100
AcDbEntity
  8
0
  6
Continuous
 62
     7
370
    25
100
AcDbSpline
210
0.0
220
0.0
230
1.0
 70
     8
 71
     3
 72
    17
 73
    13
 74
     0
 42
0.00000001
 43
0.00000001
 40
0.0
 40
0.0
 40
0.0
 40
0.0
 40
0.0713763954407994
 40
0.1789352224451701
 40
0.2861133099640156
 40
0.3928951667051691
 40
0.4998770523487813
 40
0.6073460676508745
 40
0.7148338858093208
 40
0.8218359408548284
 40
0.9286076174705359
 40
0.9999999999999999
 40
0.9999999999999999
 40
0.9999999999999999
 40
0.9999999999999999
 10
367.2751748522771
 20
-262.6079651109609
 30
0.0
 10
367.5176741206989
 20
-262.7491430050598
 30
0.0
 10
368.1256014371439
 20
-263.1030653028855
 30
0.0
 10
369.4989951729144
 20
-262.8618857284101
 30
0.0
 10
371.1666155056638
 20
-262.0094354379927
 30
0.0
 10
372.8392897707269
 20
-260.5540597945185
 30
0.0
 10
374.3001095703916
 20
-258.6817072679376
 30
0.0
 10
375.36384443217
 20
-256.5736498371768
 30
0.0
 10
375.8824161862738
 20
-254.4462186879346
 30
0.0
 10
375.7616387225491
 20
-252.5684888500154
 30
0.0
 10
375.1705127799514
 20
-251.2003269323598
 30
0.0
 10
374.4672897631694
 20
-250.7968678533739
 30
0.0
 10
374.1855002324498
 20
-250.635197171643
 30
0.0
  0
LWPOLYLINE
  5
124
330
1F
100
AcDbEntity
  8
0
  6
Continuous
 62
     7
370
    25
100
AcDbPolyline
 90
       94
 70
   128
 43
0.0
 10
380.1520004781
 20
-270.2262578932
 10
377.6152125557
 20
-271.7931541704
 10
375.2674495482
 20
-273.4553408408
 10
373.1194237595
 20
-275.2052337277
 10
371.1809361388
 20
-277.0348484714
 10
369.4608315603
 20
-278.9358369594
 10
367.9669584669
 20
-280.8995254172
 10
366.7061330586
 20
-282.9169539847
 10
365.6841081928
 20
-284.9789175983
 10
364.9055471345
 20
-287.0760079907
 10
364.3740022791
 20
-289.1986566196
 10
364.091898944
 20
-291.3371783261
 10
364.060524302
 20
-293.4818155261
 10
364.2800215084
 20
-295.622782732
 10
364.7493890477
 20
-297.7503112016
 10
365.4664853036
 20
-299.8546935102
 10
366.4280383302
 20
-301.9263278442
 10
367.6296607818
 20
-303.9557618112
 10
369.0658699305
 20
-305.9337355696
 10
370.7301126836
 20
-307.8512240786
 10
372.614795483
 20
-309.6994782781
 10
374.7113189534
 20
-311.470065008
 10
377.010117139
 20
-313.1549054872
 10
379.500701151
 20
-314.7463121751
 10
382.1717070257
 20
-316.2370238478
 10
385.0109475761
 20
-317.62023873
 10
388.0054679986
 20
-318.8896455295
 10
391.1416049834
 20
-320.039452234
 10
394.4050490568
 20
-321.0644125394
 10
397.7809098719
 20
-321.9598497869
 10
401.2537841501
 20
-322.7216783017
 10
404.8078259627
 20
-323.346422035
 10
408.426819032
 20
-323.8312304244
 10
412.0942507226
 20
-324.1738914005
 10
415.793387385
 20
-324.3728414798
 10
419.507350707
 20
-324.4271728988
 10
423.2191947257
 20
-324.3366377556
 10
426.9119831483
 20
-324.1016491413
 10
430.5688666282
 20
-323.7232792551
 10
434.1731596448
 20
-323.203254512
 10
437.7084166358
 20
-322.5439476656
 10
441.1585070343
 20
-321.7483669818
 10
444.5076888691
 20
-320.8201425129
 10
447.7406805918
 20
-319.7635095341
 10
450.8427308026
 20
-318.5832892194
 10
453.7996855579
 20
-317.2848666435
 10
456.5980529513
 20
-315.8741662107
 10
459.2250646743
 20
-314.3576246235
 10
461.6687342749
 20
-312.7421615133
 10
463.9179118492
 20
-311.0351478679
 10
465.9623349158
 20
-309.244372399
 10
467.7926752412
 20
-307.3780060042
 10
469.4005814022
 20
-305.4445644854
 10
470.7787168919
 20
-303.4528696927
 10
471.920793594
 20
-301.4120092728
 10
472.8216004746
 20
-299.3312952036
 10
473.4770273584
 20
-297.2202213061
 10
473.884083683
 20
-295.0884199264
 10
474.0409121436
 20
-292.9456179852
 10
473.9467971679
 20
-290.8015925963
 10
473.6021681811
 20
-288.6661264558
 10
473.0085976462
 20
-286.5489632058
 10
472.1687938892
 20
-284.4597629768
 10
471.0865887423
 20
-282.4080583102
 10
469.7669200592
 20
-280.4032106637
 10
468.2158091854
 20
-278.4543676975
 10
466.4403334842
 20
-276.5704215348
 10
464.4485940439
 20
-274.7599681901
 10
462.2496787148
 20
-273.0312683466
 10
459.8536206431
 20
-271.3922096652
 10
457.2713524923
 20
-269.8502707948
 10
454.5146565598
 20
-268.4124872488
 10
451.5961110166
 20
-267.0854193036
 10
448.5290325168
 20
-265.8751220661
 10
445.3274154362
 20
-264.7871178448
 10
442.005868019
 20
-263.8263709536
 10
438.5795457244
 20
-262.99726506
 10
435.0640820751
 20
-262.3035831842
 10
431.4755173254
 20
-261.7484904373
 10
427.8302252733
 20
-261.3345195805
 10
424.1448385502
 20
-261.0635594675
 10
420.4361727306
 20
-260.9368464275
 10
416.7211496058
 20
-260.9549586228
 10
413.0167199744
 20
-261.1178134117
 10
409.3397862992
 20
-261.4246677251
 10
405.707125585
 20
-261.8741214572
 10
402.1353128297
 20
-262.4641238536
 10
398.6406453955
 20
-263.1919828689
 10
395.2390686484
 20
-264.0543774492
 10
391.946103203
 20
-265.0473726858
 10
388.7767741053
 20
-266.1664377693
 10
385.745542277
 20
-267.4064666624
 10
382.8662385337
 20
-268.7618013975
 10
380.1520004781
 20
-270.2262578932
  0
LWPOLYLINE
  5
125
330
1F
100
AcDbEntity
  8
0
  6
Continuous
 62
     7
370
    25
100
AcDbPolyline
 90
      105
 70
   128
 43
0.0
 10
432.9923145393
 20
-54.7774914417
 10
435.1486484177
 20
-56.0227045797
 10
437.473854751
 20
-57.3654042948
 10
439.9594491133
 20
-58.8006912212
 10
442.5963618405
 20
-60.3233281527
 10
445.374971124
 20
-61.9277591522
 10
448.2851381198
 20
-63.6081298249
 10
451.3162439442
 20
-65.3583086806
 10
454.4572284206
 20
-67.1719095063
 10
457.6966304375
 20
-69.0423146693
 10
461.0226297681
 20
-70.9626992641
 10
464.4230902015
 20
-72.9260560155
 10
467.8856038265
 20
-74.9252208476
 10
471.3975363062
 20
-76.9528990248
 10
474.94607298
 20
-79.0016917693
 10
478.5182656223
 20
-81.0641232585
 10
482.1010796896
 20
-83.1326679037
 10
485.6814418819
 20
-85.1997778097
 10
489.2462878458
 20
-87.2579103166
 10
492.7826098451
 20
-89.2995555222
 10
496.2775042241
 20
-91.3172636845
 10
499.7182184924
 20
-93.3036724052
 10
503.0921978567
 20
-95.2515334943
 10
506.3871310322
 20
-97.1537394179
 10
509.5909951651
 20
-99.003349233
 10
512.6920997026
 20
-100.7936139139
 10
515.6791290506
 20
-102.5180009788
 10
518.5411838629
 20
-104.1702183265
 10
521.2678208118
 20
-105.744237195
 10
523.8490906949
 20
-107.2343141601
 10
526.2755747382
 20
-108.6350120926
 10
528.5384189646
 20
-109.9412199976
 10
530.629366501
 20
-111.1481716642
 10
532.5407877066
 20
-112.2514630566
 10
534.2657080126
 20
-113.2470683841
 10
535.7978333719
 20
-114.1313547909
 10
537.1315732253
 20
-114.9010956118
 10
538.2620609006
 20
-115.553482146
 10
539.1851713709
 20
-116.0861339058
 10
539.8975363062
 20
-116.4971073026
 10
540.3965563642
 20
-116.7849027392
 10
540.6804106747
 20
-116.9484700812
 10
540.7480634842
 20
-116.9872124891
 10
540.5992679349
 20
-116.900988596
 10
540.2345669656
 20
-116.6901130236
 10
539.6552913305
 20
-116.355355234
 10
538.8635547438
 20
-115.8979367221
 10
537.8622461663
 20
-115.3195265583
 10
536.6550192644
 20
-114.6222352988
 10
535.2462790781
 20
-113.8086072835
 10
533.6411659477
 20
-112.881611353
 10
531.8455367569
 20
-111.8446300149
 10
529.8659435619
 20
-110.7014471015
 10
527.7096096835
 20
-109.4562339634
 10
525.3844033502
 20
-108.1135342484
 10
522.8988089879
 20
-106.6782473219
 10
520.2618962607
 20
-105.1556103904
 10
517.4832869772
 20
-103.551179391
 10
514.5731199814
 20
-101.8708087182
 10
511.542014157
 20
-100.1206298626
 10
508.4010296806
 20
-98.3070290369
 10
505.1616276637
 20
-96.4366238739
 10
501.8356283331
 20
-94.5162392791
 10
498.4351678997
 20
-92.5528825277
 10
494.9726542747
 20
-90.5537176956
 10
491.460721795
 20
-88.5260395184
 10
487.9121851212
 20
-86.4772467739
 10
484.3399924789
 20
-84.4148152847
 10
480.7571784116
 20
-82.3462706395
 10
477.1768162193
 20
-80.2791607335
 10
473.6119702554
 20
-78.2210282265
 10
470.0756482561
 20
-76.179383021
 10
466.5807538771
 20
-74.1616748587
 10
463.1400396088
 20
-72.175266138
 10
459.7660602445
 20
-70.2274050489
 10
456.471127069
 20
-68.3251991252
 10
453.2672629361
 20
-66.4755893101
 10
450.1661583986
 20
-64.6853246293
 10
447.1791290506
 20
-62.9609375643
 10
444.3170742383
 20
-61.3087202166
 10
441.5904372894
 20
-59.7347013482
 10
439.0091674063
 20
-58.244624383
 10
436.582683363
 20
-56.8439264505
 10
434.3198391366
 20
-55.5377185455
 10
432.2288916001
 20
-54.3307668789
 10
430.3174703946
 20
-53.2274754866
 10
428.5925500886
 20
-52.2318701591
 10
427.0604247293
 20
-51.3475837523
 10
425.7266848759
 20
-50.5778429314
 10
424.5961972006
 20
-49.9254563972
 10
423.6730867303
 20
-49.3928046374
 10
422.960721795
 20
-48.9818312405
 10
422.461701737
 20
-48.6940358039
 10
422.1778474265
 20
-48.5304684619
 10
422.110194617
 20
-48.4917260541
 10
422.2589901663
 20
-48.5779499471
 10
422.6236911356
 20
-48.7888255195
 10
423.2029667707
 20
-49.1235833091
 10
423.9947033574
 20
-49.5810018211
 10
424.9960119349
 20
-50.1594119848
 10
426.2032388368
 20
-50.8567032444
 10
427.6119790231
 20
-51.6703312596
 10
429.2170921535
 20
-52.5973271902
 10
431.0127213443
 20
-53.6343085283
 10
432.9923145393
 20
-54.7774914417
  0
SPLINE
  5
126
330
1F
100
AcDbEntity
  8
0
  6
Continuous
 62
     7
370
    25
100
AcDbSpline
210
0.0
220
0.0
230
1.0
 70
     8
 71
     3
 72
    17
 73
    13
 74
     0
 42
0.00000001
 43
0.00000001
 40
0.0
 40
0.0
 40
0.0
 40
0.0
 40
0.0718122741249311
 40
0.1785896552017251
 40
0.2857428993514498
 40
0.3932961535360234
 40
0.5006483189661842
 40
0.607507578400814
 40
0.7143531721128249
 40
0.821683135737741
 40
0.9292422600313213
 40
1.0
 40
1.0
 40
1.0
 40
1.0
 10
424.5399101500253
 20
-69.42676486602242
 30
0.0
 10
424.804043137263
 20
-69.57935912678653
 30
0.0
 10
425.4609143990767
 20
-69.95884517910439
 30
0.0
 10
426.9507332378445
 20
-69.78621630815304
 30
0.0
 10
428.7131681361763
 20
-68.993768698554
 30
0.0
 10
430.4201031321731
 20
-67.55169212757997
 30
0.0
 10
431.8283932441657
 20
-65.63963492571575
 30
0.0
 10
432.7724853912212
 20
-63.46771921118871
 30
0.0
 10
433.1640495856433
 20
-61.27637418447859
 30
0.0
 10
432.9676796754694
 20
-59.35327893794692
 30
0.0
 10
432.3703513076626
 20
-57.97814631881052
 30
0.0
 10
431.7125771195535
 20
-57.60338130033618
 30
0.0
 10
431.4515663892847
 20
-57.45467116102174
 30
0.0
  0
LWPOLYLINE
  5
127
330
1F
100
AcDbEntity
  8
0
  6
Continuous
 62
     7
370
    25
100
AcDbPolyline
 90
       34
 70
   128
 43
0.0
 10
354.3426029648
 20
-252.8762585164
 10
354.4320513497
 20
-251.7429015098
 10
354.697163607
 20
-250.5472320714
 10
355.1283578887
 20
-249.3324648099
 10
355.7100497102
 20
-248.1425045792
 10
356.4212152134
 20
-247.0203596424
 10
357.2361510242
 20
-246.0065872413
 10
358.1254032389
 20
-245.1378277518
 10
359.0568319657
 20
-244.4454804055
 10
359.9967729435
 20
-243.9545684392
 10
360.9112542565
 20
-243.6828346905
 10
361.7672241672
 20
-243.6401003251
 10
362.533745693
 20
-243.8279098742
 10
363.1831147487
 20
-244.2394754115
 10
363.6918614448
 20
-244.8599218862
 10
364.0415983501
 20
-245.666824746
 10
364.2196850616
 20
-246.6310204192
 10
364.2196850616
 20
-247.717660362
 10
364.0415983501
 20
-248.8874705757
 10
363.6918614448
 20
-250.0981710713
 10
363.1831147487
 20
-251.3060039783
 10
362.533745693
 20
-252.4673150686
 10
361.7672241672
 20
-253.5401315335
 10
360.9112542565
 20
-254.4856789909
 10
359.9967729435
 20
-255.269782892
 10
359.0568319657
 20
-255.8641036789
 10
358.1254032389
 20
-256.2471610498
 10
357.2361510242
 20
-256.4051103134
 10
356.4212152134
 20
-256.3322427716
 10
355.7100497102
 20
-256.0311920474
 10
355.1283578887
 20
-255.5128388982
 10
354.697163607
 20
-254.7959179575
 10
354.4320513497
 20
-253.9063406159
 10
354.3426029648
 20
-252.8762585164
  0
LWPOLYLINE
  5
128
330
1F
100
AcDbEntity
  8
0
  6
Continuous
 62
     7
370
    25
100
AcDbPolyline
 90
       29
 70
   128
 43
0.0
 10
355.7568165271
 20
-252.0598504045
 10
355.8454597437
 20
-251.1001906445
 10
356.1069444524
 20
-250.0863069526
 10
356.5281587181
 20
-249.0690396908
 10
357.0879810986
 20
-248.0993988874
 10
357.7583397622
 20
-247.2260063811
 10
358.5056201263
 20
-246.4926577191
 10
359.2923504331
 20
-245.9361260656
 10
360.0790807399
 20
-245.5843182414
 10
360.826361104
 20
-245.4548753601
 10
361.4967197675
 20
-245.554288228
 10
362.0565421481
 20
-245.877571869
 10
362.4777564137
 20
-246.4085154913
 10
362.7392411224
 20
-247.1204953647
 10
362.827884339
 20
-247.9778098454
 10
362.7392411224
 20
-248.9374696055
 10
362.4777564137
 20
-249.9513532974
 10
362.0565421481
 20
-250.9686205591
 10
361.4967197675
 20
-251.9382613625
 10
360.826361104
 20
-252.8116538689
 10
360.0790807399
 20
-253.5450025309
 10
359.2923504331
 20
-254.1015341844
 10
358.5056201263
 20
-254.4533420085
 10
357.7583397622
 20
-254.5827848899
 10
357.0879810986
 20
-254.4833720219
 10
356.5281587181
 20
-254.160088381
 10
356.1069444524
 20
-253.6291447586
 10
355.8454597437
 20
-252.9171648852
 10
355.7568165271
 20
-252.0598504045
  0
LWPOLYLINE
  5
129
330
1F
100
AcDbEntity
  8
0
  6
Continuous
 62
     7
370
    25
100
AcDbPolyline
 90
       94
 70
   128
 43
0.0
 10
442.5382560853
 20
-60.2882461965
 10
440.7704631134
 20
-59.2673726305
 10
439.1881863086
 20
-58.353596858
 10
437.7986452372
 20
-57.5510882281
 10
436.6081800564
 20
-56.8635084037
 10
435.6222225856
 20
-56.2939946539
 10
434.8452715228
 20
-55.8451455392
 10
434.2808719174
 20
-55.5190090552
 10
433.9315989954
 20
-55.3170732878
 10
433.799046409
 20
-55.2402596238
 10
433.8838189652
 20
-55.2889185461
 10
434.1855298663
 20
-55.4628280354
 10
434.7028024748
 20
-55.7611945824
 10
435.4332765942
 20
-56.1826568091
 10
436.3736192388
 20
-56.72529168
 10
437.5195398407
 20
-57.3866232766
 10
438.865809827
 20
-58.1636340946
 10
440.4062864767
 20
-59.0527788117
 10
442.133940948
 20
-60.0500004647
 10
444.0408903499
 20
-61.1507489597
 10
446.1184337096
 20
-62.350001834
 10
448.3570916732
 20
-63.6422871716
 10
450.746649758
 20
-65.021708571
 10
453.2762049585
 20
-66.4819720488
 10
455.9342154945
 20
-68.0164147575
 10
458.7085534735
 20
-69.6180353872
 10
461.5865602277
 20
-71.2795261101
 10
464.5551040723
 20
-72.9933059252
 10
467.6006402226
 20
-74.7515552482
 10
470.7092725958
 20
-76.5462515909
 10
473.8668172153
 20
-78.3692061653
 10
477.0588669292
 20
-80.2121012479
 10
480.2708571467
 20
-82.0665281312
 10
483.4881322933
 20
-83.9240254905
 10
486.6960126804
 20
-85.7761179915
 10
489.8798614855
 20
-87.6143549609
 10
493.0251515367
 20
-89.4303489449
 10
496.117531597
 20
-91.2158139797
 10
499.1428918455
 20
-92.9626033976
 10
502.0874282571
 20
-94.6627469994
 10
504.9377055876
 20
-96.3084874196
 10
507.6807186753
 20
-97.8923155221
 10
510.3039517807
 20
-99.4070046627
 10
512.7954356926
 20
-100.8456436622
 10
515.1438023415
 20
-102.2016683407
 10
517.338336669
 20
-103.4688914688
 10
519.3690255183
 20
-104.6415309979
 10
521.2266033219
 20
-105.7142364427
 10
522.9025943783
 20
-106.6821132945
 10
524.3893515248
 20
-107.5407453531
 10
525.6800910296
 20
-108.2862148773
 10
526.7689235442
 20
-108.9151204608
 10
527.6508809757
 20
-109.4245925515
 10
528.3219391546
 20
-109.8123065452
 10
528.7790361963
 20
-110.0764933919
 10
529.0200864719
 20
-110.2159476675
 10
529.0439901242
 20
-110.2300330742
 10
528.8506380865
 20
-110.1186853435
 10
528.4409125796
 20
-109.8824125296
 10
527.816683087
 20
-109.5222926911
 10
526.9807978249
 20
-109.0399689722
 10
525.9370707459
 20
-108.4376421056
 10
524.6902641373
 20
-107.7180603703
 10
523.2460668917
 20
-106.8845070531
 10
521.6110685498
 20
-105.9407854663
 10
519.7927292341
 20
-104.8912015952
 10
517.7993456099
 20
-103.7405444502
 10
515.6400130294
 20
-102.494064216
 10
513.3245840319
 20
-101.1574482959
 10
510.8636233889
 20
-99.736795362
 10
508.2683598993
 20
-98.2385875275
 10
505.5506351552
 20
-96.6696607714
 10
502.7228495113
 20
-95.0371737465
 10
499.7979055048
 20
-93.3485751167
 10
496.7891489844
 20
-91.6115695702
 10
493.7103082161
 20
-89.8340826649
 10
490.575431244
 20
-88.024224666
 10
487.3988217928
 20
-86.1902535403
 10
484.1949740029
 20
-84.3405372774
 10
480.9785062968
 20
-82.4835157085
 10
477.764094679
 20
-80.627661997
 10
474.5664057724
 20
-78.7814439777
 10
471.400029898
 20
-76.95328552
 10
468.2794145029
 20
-75.1515280916
 10
465.2187982392
 20
-73.3843926985
 10
462.232145997
 20
-71.6599423741
 10
459.3330851854
 20
-69.9860453897
 10
456.5348435541
 20
-68.3703393534
 10
453.8501888377
 20
-66.8201963612
 10
451.2913705
 20
-65.34268936
 10
448.8700638421
 20
-63.9445598754
 10
446.5973167311
 20
-62.6321872516
 10
444.4834991906
 20
-61.4115595439
 10
442.5382560853
 20
-60.2882461965
  0
LWPOLYLINE
  5
12A
330
1F
100
AcDbEntity
  8
0
  6
Continuous
 62
     7
370
    25
100
AcDbPolyline
 90
       34
 70
   128
 43
0.0
 10
411.728858572
 20
-59.7639089509
 10
411.818306957
 20
-58.6305519443
 10
412.0834192142
 20
-57.4348825059
 10
412.514613496
 20
-56.2201152444
 10
413.0963053175
 20
-55.0301550137
 10
413.8074708207
 20
-53.9080100769
 10
414.6224066314
 20
-52.8942376758
 10
415.5116588462
 20
-52.0254781864
 10
416.4430875729
 20
-51.33313084
 10
417.3830285508
 20
-50.8422188737
 10
418.2975098637
 20
-50.570485125
 10
419.1534797745
 20
-50.5277507596
 10
419.9200013003
 20
-50.7155603087
 10
420.569370356
 20
-51.1271258461
 10
421.0781170521
 20
-51.7475723207
 10
421.4278539573
 20
-52.5544751805
 10
421.6059406689
 20
-53.5186708537
 10
421.6059406689
 20
-54.6053107965
 10
421.4278539573
 20
-55.7751210102
 10
421.0781170521
 20
-56.9858215058
 10
420.569370356
 20
-58.1936544128
 10
419.9200013003
 20
-59.3549655031
 10
419.1534797745
 20
-60.427781968
 10
418.2975098637
 20
-61.3733294254
 10
417.3830285508
 20
-62.1574333265
 10
416.4430875729
 20
-62.7517541134
 10
415.5116588462
 20
-63.1348114843
 10
414.6224066314
 20
-63.2927607479
 10
413.8074708207
 20
-63.2198932061
 10
413.0963053175
 20
-62.9188424819
 10
412.514613496
 20
-62.4004893327
 10
412.0834192142
 20
-61.683568392
 10
411.818306957
 20
-60.7939910504
 10
411.728858572
 20
-59.7639089509
  0
LWPOLYLINE
  5
12B
330
1F
100
AcDbEntity
  8
0
  6
Continuous
 62
     7
370
    25
100
AcDbPolyline
 90
       29
 70
   128
 43
0.0
 10
413.1430721344
 20
-58.9475008391
 10
413.231715351
 20
-57.987841079
 10
413.4932000597
 20
-56.9739573871
 10
413.9144143253
 20
-55.9566901253
 10
414.4742367059
 20
-54.9870493219
 10
415.1445953695
 20
-54.1136568156
 10
415.8918757336
 20
-53.3803081536
 10
416.6786060403
 20
-52.8237765001
 10
417.4653363471
 20
-52.471968676
 10
418.2126167112
 20
-52.3425257946
 10
418.8829753748
 20
-52.4419386625
 10
419.4427977553
 20
-52.7652223035
 10
419.864012021
 20
-53.2961659258
 10
420.1254967297
 20
-54.0081457993
 10
420.2141399463
 20
-54.8654602799
 10
420.1254967297
 20
-55.82512004
 10
419.864012021
 20
-56.8390037319
 10
419.4427977553
 20
-57.8562709936
 10
418.8829753748
 20
-58.8259117971
 10
418.2126167112
 20
-59.6993043034
 10
417.4653363471
 20
-60.4326529654
 10
416.6786060403
 20
-60.9891846189
 10
415.8918757336
 20
-61.340992443
 10
415.1445953695
 20
-61.4704353244
 10
414.4742367059
 20
-61.3710224564
 10
413.9144143253
 20
-61.0477388155
 10
413.4932000597
 20
-60.5167951932
 10
413.231715351
 20
-59.8048153197
 10
413.1430721344
 20
-58.9475008391
  0
LWPOLYLINE
  5
12C
330
1F
100
AcDbEntity
  8
0
  6
Continuous
 62
     1
370
    25
100
AcDbPolyline
 90
       40
 70
   128
 43
0.0
 10
370.6060589321
 20
-186.5092150263
 10
373.6189713538
 20
-184.8719279323
 10
376.7976306683
 20
-183.3426453461
 10
380.1304382922
 20
-181.926947454
 10
383.6052331722
 20
-180.629999984
 10
387.2093361583
 20
-179.4565353569
 10
390.9295962698
 20
-178.4108354177
 10
394.7524386809
 20
-177.4967158123
 10
398.6639142543
 20
-176.7175120638
 10
402.6497504396
 20
-176.0760674022
 10
406.6954033531
 20
-175.5747223896
 10
410.7861108458
 20
-175.2153063796
 10
414.9069463699
 20
-174.9991308421
 10
419.0428734433
 20
-174.9269845783
 10
423.1788005168
 20
-174.9991308421
 10
427.2996360408
 20
-175.2153063796
 10
431.3903435336
 20
-175.5747223896
 10
435.435996447
 20
-176.0760674022
 10
439.4218326324
 20
-176.7175120638
 10
443.3333082057
 20
-177.4967158123
 10
447.1561506168
 20
-178.4108354177
 10
450.8764107283
 20
-179.4565353569
 10
454.4805137145
 20
-180.629999984
 10
457.9553085944
 20
-181.926947454
 10
461.2881162184
 20
-183.3426453461
 10
464.4667755328
 20
-184.8719279323
 10
467.4796879546
 20
-186.5092150263
 10
470.3158596931
 20
-188.248532345
 10
472.9649418651
 20
-190.0835333081
 10
475.417268257
 20
-192.0075221962
 10
477.663890596
 20
-194.0134785824
 10
479.6966112006
 20
-196.0940829494
 10
481.5080128938
 20
-198.2417433975
 10
483.0914860673
 20
-200.4486233466
 10
484.4412527992
 20
-202.7066701313
 10
485.552387937
 20
-205.0076443835
 10
486.4208370692
 20
-207.3431500978
 10
487.043431319
 20
-209.7046652671
 10
487.4178989076
 20
-212.0835729786
 10
487.5428734433
 20
-214.4711928562
  0
LWPOLYLINE
  5
12D
330
1F
100
AcDbEntity
  8
0
  6
Continuous
 62
     1
370
    25
100
AcDbPolyline
 90
       14
 70
   128
 43
0.0
 10
350.5428734433
 20
-214.4711928562
 10
350.667847979
 20
-212.0835729786
 10
351.0423155676
 20
-209.7046652671
 10
351.6649098175
 20
-207.3431500978
 10
352.5333589496
 20
-205.0076443835
 10
353.6444940875
 20
-202.7066701313
 10
354.9942608194
 20
-200.4486233466
 10
356.5777339929
 20
-198.2417433975
 10
358.3891356861
 20
-196.0940829494
 10
360.4218562907
 20
-194.0134785823
 10
362.6684786296
 20
-192.0075221962
 10
365.1208050216
 20
-190.0835333081
 10
367.7698871936
 20
-188.248532345
 10
370.6060589321
 20
-186.5092150263
  0
LWPOLYLINE
  5
12E
330
1F
100
AcDbEntity
  8
0
  6
Continuous
 62
     1
370
    25
100
AcDbPolyline
 90
       43
 70
   128
 43
0.0
 10
385.1035336151
 20
-137.7232928715
 10
387.2598674935
 20
-138.9685060095
 10
389.5850738267
 20
-140.3112057246
 10
392.0706681891
 20
-141.7464926511
 10
394.7075809163
 20
-143.2691295825
 10
397.4861901998
 20
-144.873560582
 10
400.3963571956
 20
-146.5539312547
 10
403.42746302
 20
-148.3041101104
 10
406.5684474964
 20
-150.1177109361
 10
409.8078495133
 20
-151.9881160991
 10
413.1338488439
 20
-153.9085006939
 10
416.5343092773
 20
-155.8718574453
 10
419.9968229023
 20
-157.8710222774
 10
423.508755382
 20
-159.8987004546
 10
427.0572920558
 20
-161.9474931991
 10
430.6294846981
 20
-164.0099246883
 10
434.2122987654
 20
-166.0784693335
 10
437.7926609577
 20
-168.1455792395
 10
441.3575069216
 20
-170.2037117464
 10
444.8938289209
 20
-172.245356952
 10
448.3887232999
 20
-174.2630651143
 10
451.8294375682
 20
-176.249473835
 10
455.2034169325
 20
-178.1973349241
 10
458.498350108
 20
-180.0995408478
 10
461.7022142409
 20
-181.9491506628
 10
464.8033187784
 20
-183.7394153437
 10
467.7903481264
 20
-185.4638024087
 10
470.6524029387
 20
-187.1160197564
 10
473.3790398876
 20
-188.6900386248
 10
475.9603097706
 20
-190.1801155899
 10
478.386793814
 20
-191.5808135224
 10
480.6496380404
 20
-192.8870214275
 10
482.7405855768
 20
-194.093973094
 10
484.6520067824
 20
-195.1972644864
 10
486.3769270884
 20
-196.1928698139
 10
487.9090524477
 20
-197.0771562207
 10
489.2427923011
 20
-197.8468970416
 10
490.3732799764
 20
-198.4992835758
 10
491.2963904467
 20
-199.0319353356
 10
492.008755382
 20
-199.4429087325
 10
492.50777544
 20
-199.7307041691
 10
492.7916297505
 20
-199.894271511
 10
492.8630882421
 20
-199.9352707768
  0
LWPOLYLINE
  5
12F
330
1F
100
AcDbEntity
  8
0
  6
Continuous
 62
     1
370
    25
100
AcDbPolyline
 90
       12
 70
   128
 43
0.0
 10
374.2176080107
 20
-131.435270626
 10
374.2214136928
 20
-131.4375274839
 10
374.3702092421
 20
-131.523751377
 10
374.7349102114
 20
-131.7346269493
 10
375.3141858465
 20
-132.0693847389
 10
376.1059224332
 20
-132.5268032509
 10
377.1072310107
 20
-133.1052134146
 10
378.3144579126
 20
-133.8025046742
 10
379.7231980989
 20
-134.6161326895
 10
381.3283112293
 20
-135.54312862
 10
383.1239404201
 20
-136.5801099581
 10
385.1035336151
 20
-137.7232928715
  0
ENDSEC
  0
SECTION
  2
OBJECTS
  0
DICTIONARY
  5
C
330
0
100
AcDbDictionary
281
     1
  3
ACAD_GROUP
350
D
  3
ACAD_LAYOUT
350
1A
  3
ACAD_MLINESTYLE
350
17
  3
ACAD_PLOTSETTINGS
350
19
  3
ACAD_PLOTSTYLENAME
350
E
  3
ACAD_SCALELIST
350
47
  3
DWGPROPS
350
130
  0
DICTIONARY
  5
D
102
{ACAD_REACTORS
330
C
102
}
330
C
100
AcDbDictionary
281
     1
  0
DICTIONARY
  5
1A
102
{ACAD_REACTORS
330
C
102
}
330
C
100
AcDbDictionary
281
     1
  3
Layout1
350
1E
  3
Layout2
350
26
  3
Model
350
22
  0
DICTIONARY
  5
17
102
{ACAD_REACTORS
330
C
102
}
330
C
100
AcDbDictionary
281
     1
  3
Standard
350
18
  0
DICTIONARY
  5
19
102
{ACAD_REACTORS
330
C
102
}
330
C
100
AcDbDictionary
281
     1
  0
ACDBDICTIONARYWDFLT
  5
E
102
{ACAD_REACTORS
330
C
102
}
330
C
100
AcDbDictionary
281
     1
  3
Normal
350
F
100
AcDbDictionaryWithDefault
340
F
  0
DICTIONARY
  5
47
102
{ACAD_REACTORS
330
C
102
}
330
C
100
AcDbDictionary
281
     1
  3
A0
350
48
  3
A1
350
49
  3
A2
350
4A
  3
A3
350
4B
  3
A4
350
4C
  3
A5
350
4D
  3
A6
350
4E
  3
A7
350
4F
  3
A8
350
50
  3
A9
350
51
  3
B0
350
52
  3
B1
350
53
  3
B2
350
54
  3
B3
350
55
  3
B4
350
56
  3
B5
350
57
  3
B6
350
58
  3
B7
350
59
  3
B8
350
5A
  3
B9
350
5B
  3
C0
350
5C
  3
C1
350
5D
  3
C2
350
5E
  3
C3
350
5F
  3
C4
350
60
  3
C5
350
61
  3
C6
350
62
  3
C7
350
63
  3
C8
350
64
  3
C9
350
65
  3
D0
350
66
  3
D1
350
67
  3
D2
350
68
  0
XRECORD
  5
130
102
{ACAD_REACTORS
330
C
102
}
330
C
100
AcDbXrecord
280
     1
  1
DWGPROPS COOKIE
  2

  3

  4

  6

  7

  8
b.kav
  9

300
=
301
=
302
=
303
=
304
=
305
=
306
=
307
=
308
=
309
=
 40
0.0
 41
2459741.478194016
 42
2459741.478194201
  1

 90
        0
  0
LAYOUT
  5
1E
102
{ACAD_REACTORS
330
1A
102
}
330
1A
100
AcDbPlotSettings
  1

  2
none_device
  4

  6

 40
0.0
 41
0.0
 42
0.0
 43
0.0
 44
0.0
 45
0.0
 46
0.0
 47
0.0
 48
0.0
 49
0.0
140
0.0
141
0.0
142
1.0
143
1.0
 70
   688
 72
     1
 73
     0
 74
     5
  7

 75
    16
147
1.0
148
0.0
149
0.0
100
AcDbLayout
  1
Layout1
 70
     1
 71
     1
 10
0.0
 20
0.0
 11
420.0
 21
297.0
 12
0.0
 22
0.0
 32
0.0
 14
1.0000000000E+20
 24
1.0000000000E+20
 34
1.0000000000E+20
 15
-1.0000000000E+20
 25
-1.0000000000E+20
 35
-1.0000000000E+20
146
0.0
 13
0.0
 23
0.0
 33
0.0
 16
1.0
 26
0.0
 36
0.0
 17
0.0
 27
1.0
 37
0.0
 76
     0
330
1B
  0
LAYOUT
  5
26
102
{ACAD_REACTORS
330
1A
102
}
330
1A
100
AcDbPlotSettings
  1

  2
none_device
  4

  6

 40
0.0
 41
0.0
 42
0.0
 43
0.0
 44
0.0
 45
0.0
 46
0.0
 47
0.0
 48
0.0
 49
0.0
140
0.0
141
0.0
142
1.0
143
1.0
 70
   688
 72
     1
 73
     0
 74
     5
  7

 75
    16
147
1.0
148
0.0
149
0.0
100
AcDbLayout
  1
Layout2
 70
     1
 71
     2
 10
0.0
 20
0.0
 11
0.0
 21
0.0
 12
0.0
 22
0.0
 32
0.0
 14
0.0
 24
0.0
 34
0.0
 15
0.0
 25
0.0
 35
0.0
146
0.0
 13
0.0
 23
0.0
 33
0.0
 16
1.0
 26
0.0
 36
0.0
 17
0.0
 27
1.0
 37
0.0
 76
     0
330
23
  0
LAYOUT
  5
22
102
{ACAD_REACTORS
330
1A
102
}
330
1A
100
AcDbPlotSettings
  1

  2
none_device
  4
Letter_(8.50_x_11.00_Inches)
  6

 40
6.35
 41
6.35
 42
6.35000508
 43
6.35000508
 44
215.9
 45
279.4
 46
0.0
 47
0.0
 48
0.0
 49
0.0
140
0.0
141
0.0
142
1.0
143
1.0
 70
  1712
 72
     1
 73
     0
 74
     0
  7

 75
     0
147
1.0
148
0.0
149
0.0
100
AcDbLayout
  1
Model
 70
     1
 71
     0
 10
0.0
 20
0.0
 11
279.4
 21
215.9
 12
0.0
 22
0.0
 32
0.0
 14
0.0
 24
0.0
 34
0.0
 15
279.4
 25
215.9
 35
0.0
146
0.0
 13
0.0
 23
0.0
 33
0.0
 16
1.0
 26
0.0
 36
0.0
 17
0.0
 27
1.0
 37
0.0
 76
     0
330
1F
331
29
  0
MLINESTYLE
  5
18
102
{ACAD_REACTORS
330
17
102
}
330
17
100
AcDbMlineStyle
  2
Standard
 70
     0
  3

 62
   256
 51
90.0
 52
90.0
 71
     2
 49
0.5
 62
   256
  6
BYLAYER
 49
-0.5
 62
   256
  6
BYLAYER
  0
ACDBPLACEHOLDER
  5
F
102
{ACAD_REACTORS
330
E
102
}
330
E
  0
SCALE
  5
48
102
{ACAD_REACTORS
330
47
102
}
330
47
100
AcDbScale
 70
     0
300
1:1
140
1.0
141
1.0
290
     1
  0
SCALE
  5
49
102
{ACAD_REACTORS
330
47
102
}
330
47
100
AcDbScale
 70
     0
300
1:2
140
1.0
141
2.0
290
     0
  0
SCALE
  5
4A
102
{ACAD_REACTORS
330
47
102
}
330
47
100
AcDbScale
 70
     0
300
1:4
140
1.0
141
4.0
290
     0
  0
SCALE
  5
4B
102
{ACAD_REACTORS
330
47
102
}
330
47
100
AcDbScale
 70
     0
300
1:5
140
1.0
141
5.0
290
     0
  0
SCALE
  5
4C
102
{ACAD_REACTORS
330
47
102
}
330
47
100
AcDbScale
 70
     0
300
1:8
140
1.0
141
8.0
290
     0
  0
SCALE
  5
4D
102
{ACAD_REACTORS
330
47
102
}
330
47
100
AcDbScale
 70
     0
300
1:10
140
1.0
141
10.0
290
     0
  0
SCALE
  5
4E
102
{ACAD_REACTORS
330
47
102
}
330
47
100
AcDbScale
 70
     0
300
1:16
140
1.0
141
16.0
290
     0
  0
SCALE
  5
4F
102
{ACAD_REACTORS
330
47
102
}
330
47
100
AcDbScale
 70
     0
300
1:20
140
1.0
141
20.0
290
     0
  0
SCALE
  5
50
102
{ACAD_REACTORS
330
47
102
}
330
47
100
AcDbScale
 70
     0
300
1:30
140
1.0
141
30.0
290
     0
  0
SCALE
  5
51
102
{ACAD_REACTORS
330
47
102
}
330
47
100
AcDbScale
 70
     0
300
1:40
140
1.0
141
40.0
290
     0
  0
SCALE
  5
52
102
{ACAD_REACTORS
330
47
102
}
330
47
100
AcDbScale
 70
     0
300
1:50
140
1.0
141
50.0
290
     0
  0
SCALE
  5
53
102
{ACAD_REACTORS
330
47
102
}
330
47
100
AcDbScale
 70
     0
300
1:100
140
1.0
141
100.0
290
     0
  0
SCALE
  5
54
102
{ACAD_REACTORS
330
47
102
}
330
47
100
AcDbScale
 70
     0
300
2:1
140
2.0
141
1.0
290
     0
  0
SCALE
  5
55
102
{ACAD_REACTORS
330
47
102
}
330
47
100
AcDbScale
 70
     0
300
4:1
140
4.0
141
1.0
290
     0
  0
SCALE
  5
56
102
{ACAD_REACTORS
330
47
102
}
330
47
100
AcDbScale
 70
     0
300
8:1
140
8.0
141
1.0
290
     0
  0
SCALE
  5
57
102
{ACAD_REACTORS
330
47
102
}
330
47
100
AcDbScale
 70
     0
300
10:1
140
10.0
141
1.0
290
     0
  0
SCALE
  5
58
102
{ACAD_REACTORS
330
47
102
}
330
47
100
AcDbScale
 70
     0
300
100:1
140
100.0
141
1.0
290
     0
  0
SCALE
  5
59
102
{ACAD_REACTORS
330
47
102
}
330
47
100
AcDbScale
 70
     0
300
1/128" = 1'-0"
140
0.0078125
141
12.0
290
     0
  0
SCALE
  5
5A
102
{ACAD_REACTORS
330
47
102
}
330
47
100
AcDbScale
 70
     0
300
1/64" = 1'-0"
140
0.015625
141
12.0
290
     0
  0
SCALE
  5
5B
102
{ACAD_REACTORS
330
47
102
}
330
47
100
AcDbScale
 70
     0
300
1/32" = 1'-0"
140
0.03125
141
12.0
290
     0
  0
SCALE
  5
5C
102
{ACAD_REACTORS
330
47
102
}
330
47
100
AcDbScale
 70
     0
300
1/16" = 1'-0"
140
0.0625
141
12.0
290
     0
  0
SCALE
  5
5D
102
{ACAD_REACTORS
330
47
102
}
330
47
100
AcDbScale
 70
     0
300
3/32" = 1'-0"
140
0.09375
141
12.0
290
     0
  0
SCALE
  5
5E
102
{ACAD_REACTORS
330
47
102
}
330
47
100
AcDbScale
 70
     0
300
1/8" = 1'-0"
140
0.125
141
12.0
290
     0
  0
SCALE
  5
5F
102
{ACAD_REACTORS
330
47
102
}
330
47
100
AcDbScale
 70
     0
300
3/16" = 1'-0"
140
0.1875
141
12.0
290
     0
  0
SCALE
  5
60
102
{ACAD_REACTORS
330
47
102
}
330
47
100
AcDbScale
 70
     0
300
1/4" = 1'-0"
140
0.25
141
12.0
290
     0
  0
SCALE
  5
61
102
{ACAD_REACTORS
330
47
102
}
330
47
100
AcDbScale
 70
     0
300
3/8" = 1'-0"
140
0.375
141
12.0
290
     0
  0
SCALE
  5
62
102
{ACAD_REACTORS
330
47
102
}
330
47
100
AcDbScale
 70
     0
300
1/2" = 1'-0"
140
0.5
141
12.0
290
     0
  0
SCALE
  5
63
102
{ACAD_REACTORS
330
47
102
}
330
47
100
AcDbScale
 70
     0
300
3/4" = 1'-0"
140
0.75
141
12.0
290
     0
  0
SCALE
  5
64
102
{ACAD_REACTORS
330
47
102
}
330
47
100
AcDbScale
 70
     0
300
1" = 1'-0"
140
1.0
141
12.0
290
     0
  0
SCALE
  5
65
102
{ACAD_REACTORS
330
47
102
}
330
47
100
AcDbScale
 70
     0
300
1-1/2" = 1'-0"
140
1.5
141
12.0
290
     0
  0
SCALE
  5
66
102
{ACAD_REACTORS
330
47
102
}
330
47
100
AcDbScale
 70
     0
300
3" = 1'-0"
140
3.0
141
12.0
290
     0
  0
SCALE
  5
67
102
{ACAD_REACTORS
330
47
102
}
330
47
100
AcDbScale
 70
     0
300
6" = 1'-0"
140
6.0
141
12.0
290
     0
  0
SCALE
  5
68
102
{ACAD_REACTORS
330
47
102
}
330
47
100
AcDbScale
 70
     0
300
1'-0" = 1'-0"
140
12.0
141
12.0
290
     0
  0
ENDSEC
  0
EOF
